  0
SECTION
  2
HEADER
  9
$ACADVER
  1
AC1021
  9
$ACADMAINTVER
 70
    50
  9
$DWGCODEPAGE
  3
ANSI_1252
  9
$INSBASE
 10
0.0
 20
0.0
 30
0.0
  9
$EXTMIN
 10
3389.798777473415
 20
2300.419292563498
 30
0.0
  9
$EXTMAX
 10
3887.092716924389
 20
2635.419292563501
 30
0.0
  9
$LIMMIN
 10
0.0
 20
0.0
  9
$LIMMAX
 10
12.0
 20
9.0
  9
$ORTHOMODE
 70
     0
  9
$REGENMODE
 70
     1
  9
$FILLMODE
 70
     1
  9
$QTEXTMODE
 70
     0
  9
$MIRRTEXT
 70
     0
  9
$LTSCALE
 40
1.0
  9
$ATTMODE
 70
     1
  9
$TEXTSIZE
 40
0.2
  9
$TRACEWID
 40
0.05
  9
$TEXTSTYLE
  7
Standard
  9
$CLAYER
  8
0
  9
$CELTYPE
  6
ByLayer
  9
$CECOLOR
 62
   256
  9
$CELTSCALE
 40
1.0
  9
$DISPSILH
 70
     0
  9
$DIMSCALE
 40
1.0
  9
$DIMASZ
 40
0.18
  9
$DIMEXO
 40
0.0625
  9
$DIMDLI
 40
0.38
  9
$DIMRND
 40
0.0
  9
$DIMDLE
 40
0.0
  9
$DIMEXE
 40
0.18
  9
$DIMTP
 40
0.0
  9
$DIMTM
 40
0.0
  9
$DIMTXT
 40
0.18
  9
$DIMCEN
 40
0.09
  9
$DIMTSZ
 40
0.0
  9
$DIMTOL
 70
     0
  9
$DIMLIM
 70
     0
  9
$DIMTIH
 70
     1
  9
$DIMTOH
 70
     1
  9
$DIMSE1
 70
     0
  9
$DIMSE2
 70
     0
  9
$DIMTAD
 70
     0
  9
$DIMZIN
 70
     0
  9
$DIMBLK
  1

  9
$DIMASO
 70
     1
  9
$DIMSHO
 70
     1
  9
$DIMPOST
  1

  9
$DIMAPOST
  1

  9
$DIMALT
 70
     0
  9
$DIMALTD
 70
     2
  9
$DIMALTF
 40
25.4
  9
$DIMLFAC
 40
1.0
  9
$DIMTOFL
 70
     0
  9
$DIMTVP
 40
0.0
  9
$DIMTIX
 70
     0
  9
$DIMSOXD
 70
     0
  9
$DIMSAH
 70
     0
  9
$DIMBLK1
  1

  9
$DIMBLK2
  1

  9
$DIMSTYLE
  2
Standard
  9
$DIMCLRD
 70
     0
  9
$DIMCLRE
 70
     0
  9
$DIMCLRT
 70
     0
  9
$DIMTFAC
 40
1.0
  9
$DIMGAP
 40
0.09
  9
$DIMJUST
 70
     0
  9
$DIMSD1
 70
     0
  9
$DIMSD2
 70
     0
  9
$DIMTOLJ
 70
     1
  9
$DIMTZIN
 70
     0
  9
$DIMALTZ
 70
     0
  9
$DIMALTTZ
 70
     0
  9
$DIMUPT
 70
     0
  9
$DIMDEC
 70
     4
  9
$DIMTDEC
 70
     4
  9
$DIMALTU
 70
     2
  9
$DIMALTTD
 70
     2
  9
$DIMTXSTY
  7
Standard
  9
$DIMAUNIT
 70
     1
  9
$DIMADEC
 70
     0
  9
$DIMALTRND
 40
0.0
  9
$DIMAZIN
 70
     0
  9
$DIMDSEP
 70
    46
  9
$DIMATFIT
 70
     3
  9
$DIMFRAC
 70
     0
  9
$DIMLDRBLK
  1

  9
$DIMLUNIT
 70
     2
  9
$DIMLWD
 70
    -2
  9
$DIMLWE
 70
    -2
  9
$DIMTMOVE
 70
     0
  9
$DIMFXL
 40
1.0
  9
$DIMFXLON
 70
     0
  9
$DIMJOGANG
 40
0.7853981633974483
  9
$DIMTFILL
 70
     0
  9
$DIMTFILLCLR
 70
     0
  9
$DIMARCSYM
 70
     0
  9
$DIMLTYPE
  6

  9
$DIMLTEX1
  6

  9
$DIMLTEX2
  6

  9
$LUNITS
 70
     2
  9
$LUPREC
 70
     4
  9
$SKETCHINC
 40
0.1
  9
$FILLETRAD
 40
0.0
  9
$AUNITS
 70
     0
  9
$AUPREC
 70
     0
  9
$MENU
  1
.
  9
$ELEVATION
 40
0.0
  9
$PELEVATION
 40
0.0
  9
$THICKNESS
 40
0.0
  9
$LIMCHECK
 70
     0
  9
$CHAMFERA
 40
0.0
  9
$CHAMFERB
 40
0.0
  9
$CHAMFERC
 40
0.0
  9
$CHAMFERD
 40
0.0
  9
$SKPOLY
 70
     0
  9
$TDCREATE
 40
2459816.764224537
  9
$TDUCREATE
 40
2459816.264224537
  9
$TDUPDATE
 40
2459816.764224537
  9
$TDUUPDATE
 40
2459816.264224537
  9
$TDINDWG
 40
0.0000231481
  9
$TDUSRTIMER
 40
0.0000231481
  9
$USRTIMER
 70
     1
  9
$ANGBASE
 50
0.0
  9
$ANGDIR
 70
     0
  9
$PDMODE
 70
     0
  9
$PDSIZE
 40
0.0
  9
$PLINEWID
 40
0.0
  9
$SPLFRAME
 70
     0
  9
$SPLINETYPE
 70
     6
  9
$SPLINESEGS
 70
     8
  9
$HANDSEED
  5
2AB
  9
$SURFTAB1
 70
     6
  9
$SURFTAB2
 70
     6
  9
$SURFTYPE
 70
     6
  9
$SURFU
 70
     6
  9
$SURFV
 70
     6
  9
$UCSBASE
  2

  9
$UCSNAME
  2

  9
$UCSORG
 10
0.0
 20
0.0
 30
0.0
  9
$UCSXDIR
 10
1.0
 20
0.0
 30
0.0
  9
$UCSYDIR
 10
0.0
 20
1.0
 30
0.0
  9
$UCSORTHOREF
  2

  9
$UCSORTHOVIEW
 70
     0
  9
$UCSORGTOP
 10
0.0
 20
0.0
 30
0.0
  9
$UCSORGBOTTOM
 10
0.0
 20
0.0
 30
0.0
  9
$UCSORGLEFT
 10
0.0
 20
0.0
 30
0.0
  9
$UCSORGRIGHT
 10
0.0
 20
0.0
 30
0.0
  9
$UCSORGFRONT
 10
0.0
 20
0.0
 30
0.0
  9
$UCSORGBACK
 10
0.0
 20
0.0
 30
0.0
  9
$PUCSBASE
  2

  9
$PUCSNAME
  2

  9
$PUCSORG
 10
0.0
 20
0.0
 30
0.0
  9
$PUCSXDIR
 10
1.0
 20
0.0
 30
0.0
  9
$PUCSYDIR
 10
0.0
 20
1.0
 30
0.0
  9
$PUCSORTHOREF
  2

  9
$PUCSORTHOVIEW
 70
     0
  9
$PUCSORGTOP
 10
0.0
 20
0.0
 30
0.0
  9
$PUCSORGBOTTOM
 10
0.0
 20
0.0
 30
0.0
  9
$PUCSORGLEFT
 10
0.0
 20
0.0
 30
0.0
  9
$PUCSORGRIGHT
 10
0.0
 20
0.0
 30
0.0
  9
$PUCSORGFRONT
 10
0.0
 20
0.0
 30
0.0
  9
$PUCSORGBACK
 10
0.0
 20
0.0
 30
0.0
  9
$USERI1
 70
     0
  9
$USERI2
 70
     0
  9
$USERI3
 70
     0
  9
$USERI4
 70
     0
  9
$USERI5
 70
     0
  9
$USERR1
 40
0.0
  9
$USERR2
 40
0.0
  9
$USERR3
 40
0.0
  9
$USERR4
 40
0.0
  9
$USERR5
 40
0.0
  9
$WORLDVIEW
 70
     1
  9
$SHADEDGE
 70
     3
  9
$SHADEDIF
 70
    70
  9
$TILEMODE
 70
     0
  9
$MAXACTVP
 70
    64
  9
$PINSBASE
 10
0.0
 20
0.0
 30
0.0
  9
$PLIMCHECK
 70
     0
  9
$PEXTMIN
 10
-3.179323264254881
 20
-3.79528158292931
 30
0.0
  9
$PEXTMAX
 10
293.8206767356985
 20
202.4547184170706
 30
0.0
  9
$PLIMMIN
 10
0.0
 20
0.0
  9
$PLIMMAX
 10
12.0
 20
9.0
  9
$UNITMODE
 70
     0
  9
$VISRETAIN
 70
     1
  9
$PLINEGEN
 70
     0
  9
$PSLTSCALE
 70
     1
  9
$TREEDEPTH
 70
  3020
  9
$CMLSTYLE
  2
Standard
  9
$CMLJUST
 70
     0
  9
$CMLSCALE
 40
1.0
  9
$PROXYGRAPHICS
 70
     1
  9
$MEASUREMENT
 70
     1
  9
$CELWEIGHT
370
    -1
  9
$ENDCAPS
280
     0
  9
$JOINSTYLE
280
     0
  9
$LWDISPLAY
290
     0
  9
$INSUNITS
 70
     4
  9
$HYPERLINKBASE
  1

  9
$STYLESHEET
  1

  9
$XEDIT
290
     1
  9
$CEPSNTYPE
380
     0
  9
$PSTYLEMODE
290
     1
  9
$FINGERPRINTGUID
  2
{435EF9D1-CC7A-9143-80B9-4AE898148376}
  9
$VERSIONGUID
  2
{96A87593-F4B5-F748-87F9-02F954CE633A}
  9
$EXTNAMES
290
     1
  9
$PSVPSCALE
 40
0.0
  9
$OLESTARTUP
290
     0
  9
$SORTENTS
280
   127
  9
$INDEXCTL
280
     0
  9
$HIDETEXT
280
     1
  9
$XCLIPFRAME
290
     0
  9
$HALOGAP
280
     0
  9
$OBSCOLOR
 70
   257
  9
$OBSLTYPE
280
     0
  9
$INTERSECTIONDISPLAY
280
     0
  9
$INTERSECTIONCOLOR
 70
   257
  9
$DIMASSOC
280
     2
  9
$PROJECTNAME
  1

  9
$CAMERADISPLAY
290
     0
  9
$LENSLENGTH
 40
50.0
  9
$CAMERAHEIGHT
 40
0.0
  9
$STEPSPERSEC
 40
2.0
  9
$STEPSIZE
 40
6.0
  9
$3DDWFPREC
 40
2.0
  9
$PSOLWIDTH
 40
0.25
  9
$PSOLHEIGHT
 40
4.0
  9
$LOFTANG1
 40
1.570796326794896
  9
$LOFTANG2
 40
1.570796326794896
  9
$LOFTMAG1
 40
0.0
  9
$LOFTMAG2
 40
0.0
  9
$LOFTPARAM
 70
     7
  9
$LOFTNORMALS
280
     1
  9
$LATITUDE
 40
0.0
  9
$LONGITUDE
 40
0.0
  9
$NORTHDIRECTION
 40
0.0
  9
$TIMEZONE
 70
     0
  9
$LIGHTGLYPHDISPLAY
280
     1
  9
$TILEMODELIGHTSYNCH
280
     1
  9
$CMATERIAL
347
11
  9
$SOLIDHIST
280
     0
  9
$SHOWHIST
280
     1
  9
$DWFFRAME
280
     2
  9
$DGNFRAME
280
     0
  9
$REALWORLDSCALE
290
     1
  9
$INTERFERECOLOR
 62
     1
  9
$INTERFEREOBJVS
345
33
  9
$INTERFEREVPVS
346
30
  9
$CSHADOW
280
     0
  9
$SHADOWPLANELOCATION
 40
0.0
  0
ENDSEC
  0
SECTION
  2
CLASSES
  0
CLASS
  1
ACDBDICTIONARYWDFLT
  2
AcDbDictionaryWithDefault
  3
ObjectDBX Classes
 90
        0
 91
        1
280
     0
281
     0
  0
CLASS
  1
MATERIAL
  2
AcDbMaterial
  3
ObjectDBX Classes
 90
     1153
 91
        3
280
     0
281
     0
  0
CLASS
  1
VISUALSTYLE
  2
AcDbVisualStyle
  3
ObjectDBX Classes
 90
     4095
 91
       24
280
     0
281
     0
  0
CLASS
  1
SCALE
  2
AcDbScale
  3
ObjectDBX Classes
 90
     1153
 91
       17
280
     0
281
     0
  0
CLASS
  1
TABLESTYLE
  2
AcDbTableStyle
  3
ObjectDBX Classes
 90
     4095
 91
        1
280
     0
281
     0
  0
CLASS
  1
MLEADERSTYLE
  2
AcDbMLeaderStyle
  3
ACDB_MLEADERSTYLE_CLASS
 90
     4095
 91
        1
280
     0
281
     0
  0
CLASS
  1
ACDBSECTIONVIEWSTYLE
  2
AcDbSectionViewStyle
  3
ObjectDBX Classes
 90
     1025
 91
        1
280
     0
281
     0
  0
CLASS
  1
ACDBDETAILVIEWSTYLE
  2
AcDbDetailViewStyle
  3
ObjectDBX Classes
 90
     1025
 91
        1
280
     0
281
     0
  0
CLASS
  1
RASTERVARIABLES
  2
AcDbRasterVariables
  3
ISM
 90
        0
 91
        1
280
     0
281
     0
  0
CLASS
  1
DICTIONARYVAR
  2
AcDbDictionaryVar
  3
ObjectDBX Classes
 90
        0
 91
        6
280
     0
281
     0
  0
CLASS
  1
CELLSTYLEMAP
  2
AcDbCellStyleMap
  3
ObjectDBX Classes
 90
     1152
 91
        2
280
     0
281
     0
  0
CLASS
  1
SORTENTSTABLE
  2
AcDbSortentsTable
  3
ObjectDBX Classes
 90
        0
 91
        1
280
     0
281
     0
  0
CLASS
  1
SUN
  2
AcDbSun
  3
SCENEOE
 90
     1153
 91
        1
280
     0
281
     0
  0
ENDSEC
  0
SECTION
  2
TABLES
  0
TABLE
  2
VPORT
  5
8
330
0
100
AcDbSymbolTable
 70
     1
  0
VPORT
  5
57
330
8
100
AcDbSymbolTableRecord
100
AcDbViewportTableRecord
  2
*Active
 70
     0
 10
0.0
 20
0.0
 11
1.0
 21
1.0
 12
3638.445747198902
 22
2467.9192925635
 13
0.0
 23
0.0
 14
1.0
 24
1.0
 15
0.0
 25
0.0
 16
0.0
 26
0.0
 36
1.0
 17
0.0
 27
0.0
 37
0.0
 40
335.0000000000023
 41
1.484459520749164
 42
50.0
 43
0.0
 44
0.0
 50
0.0
 51
0.0
 71
     0
 72
  1000
 73
     1
 74
     1
 75
     0
 76
     0
 77
     0
 78
     0
281
     0
 65
     1
110
0.0
120
0.0
130
0.0
111
1.0
121
0.0
131
0.0
112
0.0
122
1.0
132
0.0
 79
     0
146
0.0
 60
     3
 61
     5
292
     1
282
     1
141
0.0
142
0.0
 63
   250
421
  3355443
361
26D
  0
ENDTAB
  0
TABLE
  2
LTYPE
  5
5
330
0
100
AcDbSymbolTable
 70
     2
  0
LTYPE
  5
5B
330
5
100
AcDbSymbolTableRecord
100
AcDbLinetypeTableRecord
  2
ByBlock
 70
     0
  3

 72
    65
 73
     0
 40
0.0
  0
LTYPE
  5
5C
330
5
100
AcDbSymbolTableRecord
100
AcDbLinetypeTableRecord
  2
ByLayer
 70
     0
  3

 72
    65
 73
     0
 40
0.0
  0
LTYPE
  5
5D
330
5
100
AcDbSymbolTableRecord
100
AcDbLinetypeTableRecord
  2
Continuous
 70
     0
  3
Solid line
 72
    65
 73
     0
 40
0.0
  0
LTYPE
  5
BD
330
5
100
AcDbSymbolTableRecord
100
AcDbLinetypeTableRecord
  2
Dash
 70
     0
  3

 72
    65
 73
     2
 40
3.4
 49
2.2
 74
     0
 49
-1.199999999999999
 74
     0
  0
ENDTAB
  0
TABLE
  2
LAYER
  5
2
330
0
100
AcDbSymbolTable
 70
     3
  0
LAYER
  5
54
330
2
100
AcDbSymbolTableRecord
100
AcDbLayerTableRecord
  2
0
 70
     0
 62
     7
  6
Continuous
370
    -3
390
F
347
21
  0
LAYER
  5
BC
330
2
100
AcDbSymbolTableRecord
100
AcDbLayerTableRecord
  2
_ARDEX - WELDTEC TANKING_
 70
     0
 62
     7
  6
Continuous
370
     9
390
F
347
21
  0
LAYER
  5
C3
330
2
100
AcDbSymbolTableRecord
100
AcDbLayerTableRecord
  2
_ARDEX - BUTYNOL_
 70
     0
 62
     7
  6
Continuous
370
    25
390
F
347
21
  0
ENDTAB
  0
TABLE
  2
STYLE
  5
3
330
0
100
AcDbSymbolTable
 70
    11
  0
STYLE
  5
55
330
3
100
AcDbSymbolTableRecord
100
AcDbTextStyleTableRecord
  2
Standard
 70
     0
 40
0.0
 41
1.0
 50
0.0
 71
     0
 42
0.2
  3
txt
  4

  0
STYLE
  5
5A
330
3
100
AcDbSymbolTableRecord
100
AcDbTextStyleTableRecord
  2
Annotative
 70
     0
 40
0.0
 41
1.0
 50
0.0
 71
     0
 42
0.2
  3
txt
  4

1001
AcadAnnotative
1000
AnnotativeData
1002
{
1070
     1
1070
     1
1002
}
  0
STYLE
  5
19D
330
3
100
AcDbSymbolTableRecord
100
AcDbTextStyleTableRecord
  2
Swis721 Lt BT
 70
     0
 40
4.0
 41
1.0
 50
0.0
 71
     0
 42
0.2
  3
swissl.ttf
  4

1001
ACAD
1000
Swis721 Lt BT
1071
       34
  0
STYLE
  5
245
330
3
100
AcDbSymbolTableRecord
100
AcDbTextStyleTableRecord
  2
Swis721 Lt BT_1
 70
     0
 40
1.5
 41
0.9
 50
0.0
 71
     0
 42
0.2
  3
swissl.ttf
  4

1001
ACAD
1000
Swis721 Lt BT
1071
       34
  0
STYLE
  5
248
330
3
100
AcDbSymbolTableRecord
100
AcDbTextStyleTableRecord
  2
Swis721 Lt BT_2
 70
     0
 40
2.1
 41
0.9
 50
0.0
 71
     0
 42
0.2
  3
swissl.ttf
  4

1001
ACAD
1000
Swis721 Lt BT
1071
       34
  0
STYLE
  5
24B
330
3
100
AcDbSymbolTableRecord
100
AcDbTextStyleTableRecord
  2
Swis721 Lt BT_B
 70
     0
 40
0.7000000000000001
 41
0.9
 50
0.0
 71
     0
 42
0.2
  3

  4

1001
ACAD
1000
Swis721 Lt BT
1071
 33554466
  0
STYLE
  5
24D
330
3
100
AcDbSymbolTableRecord
100
AcDbTextStyleTableRecord
  2
Swis721 Lt BT_3
 70
     0
 40
0.7000000000000001
 41
0.9
 50
0.0
 71
     0
 42
0.2
  3
swissl.ttf
  4

1001
ACAD
1000
Swis721 Lt BT
1071
       34
  0
STYLE
  5
258
330
3
100
AcDbSymbolTableRecord
100
AcDbTextStyleTableRecord
  2
Arial Black
 70
     0
 40
5.0
 41
0.9
 50
0.0
 71
     0
 42
0.2
  3

  4

1001
ACAD
1000
Arial Black
1071
       34
  0
STYLE
  5
25E
330
3
100
AcDbSymbolTableRecord
100
AcDbTextStyleTableRecord
  2
Swis721 Lt BT_4
 70
     0
 40
2.0
 41
1.0
 50
0.0
 71
     0
 42
0.2
  3
swissl.ttf
  4

1001
ACAD
1000
Swis721 Lt BT
1071
       34
  0
STYLE
  5
260
330
3
100
AcDbSymbolTableRecord
100
AcDbTextStyleTableRecord
  2
Swis721 Lt BT_5
 70
     0
 40
3.0
 41
1.0
 50
0.0
 71
     0
 42
0.2
  3
swissl.ttf
  4

1001
ACAD
1000
Swis721 Lt BT
1071
       34
  0
STYLE
  5
262
330
3
100
AcDbSymbolTableRecord
100
AcDbTextStyleTableRecord
  2
Arial
 70
     0
 40
5.0
 41
1.0
 50
0.0
 71
     0
 42
0.2
  3
arial.ttf
  4

1001
ACAD
1000
Arial
1071
       34
  0
ENDTAB
  0
TABLE
  2
VIEW
  5
6
330
0
100
AcDbSymbolTable
 70
     0
  0
ENDTAB
  0
TABLE
  2
UCS
  5
7
330
0
100
AcDbSymbolTable
 70
     0
  0
ENDTAB
  0
TABLE
  2
APPID
  5
9
330
0
100
AcDbSymbolTable
 70
     4
  0
APPID
  5
56
330
9
100
AcDbSymbolTableRecord
100
AcDbRegAppTableRecord
  2
ACAD
 70
     0
  0
APPID
  5
5E
330
9
100
AcDbSymbolTableRecord
100
AcDbRegAppTableRecord
  2
AcadAnnotative
 70
     0
  0
APPID
  5
78
330
9
100
AcDbSymbolTableRecord
100
AcDbRegAppTableRecord
  2
REVIT
 70
     0
  0
APPID
  5
2A4
330
9
100
AcDbSymbolTableRecord
100
AcDbRegAppTableRecord
  2
ACAD_MLEADERVER
 70
     0
  0
ENDTAB
  0
TABLE
  2
DIMSTYLE
  5
A
330
0
100
AcDbSymbolTable
 70
     2
100
AcDbDimStyleTable
 71
     0
  0
DIMSTYLE
105
58
330
A
100
AcDbSymbolTableRecord
100
AcDbDimStyleTableRecord
  2
Standard
 70
     0
340
55
  0
DIMSTYLE
105
59
330
A
100
AcDbSymbolTableRecord
100
AcDbDimStyleTableRecord
  2
Annotative
 70
     0
340
55
1001
AcadAnnotative
1000
AnnotativeData
1002
{
1070
     1
1070
     1
1002
}
  0
ENDTAB
  0
TABLE
  2
BLOCK_RECORD
  5
1
330
0
100
AcDbSymbolTable
 70
    35
  0
BLOCK_RECORD
  5
70
102
{ACAD_XDICTIONARY
360
26A
102
}
330
1
100
AcDbSymbolTableRecord
100
AcDbBlockTableRecord
  2
*Model_Space
340
73
 70
     0
280
     1
281
     0
  0
BLOCK_RECORD
  5
6C
330
1
100
AcDbSymbolTableRecord
100
AcDbBlockTableRecord
  2
*Paper_Space
340
6F
 70
     0
280
     1
281
     0
  0
BLOCK_RECORD
  5
74
330
1
100
AcDbSymbolTableRecord
100
AcDbBlockTableRecord
  2
*Paper_Space0
340
77
 70
     0
280
     1
281
     0
  0
BLOCK_RECORD
  5
BE
330
1
100
AcDbSymbolTableRecord
100
AcDbBlockTableRecord
  2
_ARDEX_ Fillet - _ARDEX_ Fillet 12mm-766149-_X_ - AS-09 OPEN CUT WALL PIPE PENETRATION
340
0
102
{BLKREFS
331
C8
102
}
 70
     0
280
     1
281
     0
  0
BLOCK_RECORD
  5
C9
330
1
100
AcDbSymbolTableRecord
100
AcDbBlockTableRecord
  2
_ARDEX_ Fillet - _ARDEX_ Fillet 12mm-766022-_X_ - AS-09 OPEN CUT WALL PIPE PENETRATION
340
0
102
{BLKREFS
331
D2
102
}
 70
     0
280
     1
281
     0
  0
BLOCK_RECORD
  5
D3
330
1
100
AcDbSymbolTableRecord
100
AcDbBlockTableRecord
  2
_ARDEX_ Lining - Various - Concrete Wall 150-765586-_X_ - AS-09 OPEN CUT WALL PIPE PENETRATION
340
0
102
{BLKREFS
331
F0
102
}
 70
     0
280
     1
281
     0
  0
BLOCK_RECORD
  5
F1
330
1
100
AcDbSymbolTableRecord
100
AcDbBlockTableRecord
  2
_ARDEX_ Lines - WPM 3000X DPM Membrane-768594-_X_ - AS-09 OPEN CUT WALL PIPE PENETRATION
340
0
102
{BLKREFS
331
F5
102
}
 70
     0
280
     1
281
     0
  0
BLOCK_RECORD
  5
F6
330
1
100
AcDbSymbolTableRecord
100
AcDbBlockTableRecord
  2
_ARDEX_ Lining - Various - Pipe-763482-_X_ - AS-09 OPEN CUT WALL PIPE PENETRATION
340
0
102
{BLKREFS
331
FD
102
}
 70
     0
280
     1
281
     0
  0
BLOCK_RECORD
  5
104
330
1
100
AcDbSymbolTableRecord
100
AcDbBlockTableRecord
  2
_ARDEX_ Lines - RA 030 Sealant-764984-_X_ - AS-09 OPEN CUT WALL PIPE PENETRATION
340
0
102
{BLKREFS
331
108
331
15A
102
}
 70
     0
280
     1
281
     0
  0
BLOCK_RECORD
  5
109
330
1
100
AcDbSymbolTableRecord
100
AcDbBlockTableRecord
  2
_ARDEX_ Waterstop - _ARDEX_ Water Stop-763835-_X_ - AS-09 OPEN CUT WALL PIPE PENETRATION
340
0
102
{BLKREFS
331
115
331
116
102
}
 70
     0
280
     1
281
     0
  0
BLOCK_RECORD
  5
119
330
1
100
AcDbSymbolTableRecord
100
AcDbBlockTableRecord
  2
_ARDEX_ Lines - WPM 3000X DPM Underflashing Membrane-768571-_X_ - AS-09 OPEN CUT WALL PIPE PENETRATION
340
0
102
{BLKREFS
331
11D
102
}
 70
     0
280
     1
281
     0
  0
BLOCK_RECORD
  5
11E
330
1
100
AcDbSymbolTableRecord
100
AcDbBlockTableRecord
  2
_ARDEX_ Lines - WPM 3000X DPM Underflashing Membrane-768572-_X_ - AS-09 OPEN CUT WALL PIPE PENETRATION
340
0
102
{BLKREFS
331
122
102
}
 70
     0
280
     1
281
     0
  0
BLOCK_RECORD
  5
123
330
1
100
AcDbSymbolTableRecord
100
AcDbBlockTableRecord
  2
_ARDEX_ Lines - WPM 3000X DPM Underflashing Membrane-768573-_X_ - AS-09 OPEN CUT WALL PIPE PENETRATION
340
0
102
{BLKREFS
331
127
102
}
 70
     0
280
     1
281
     0
  0
BLOCK_RECORD
  5
128
330
1
100
AcDbSymbolTableRecord
100
AcDbBlockTableRecord
  2
_ARDEX_ Lines - WPM 3000X DPM Membrane-768587-_X_ - AS-09 OPEN CUT WALL PIPE PENETRATION
340
0
102
{BLKREFS
331
12C
102
}
 70
     0
280
     1
281
     0
  0
BLOCK_RECORD
  5
12D
330
1
100
AcDbSymbolTableRecord
100
AcDbBlockTableRecord
  2
_ARDEX_ Lines - RA 030 Sealant-765191-_X_ - AS-09 OPEN CUT WALL PIPE PENETRATION
340
0
102
{BLKREFS
331
174
331
131
102
}
 70
     0
280
     1
281
     0
  0
BLOCK_RECORD
  5
132
330
1
100
AcDbSymbolTableRecord
100
AcDbBlockTableRecord
  2
_ARDEX_ Lines - WPM 3000X DPM Membrane-768578-_X_ - AS-09 OPEN CUT WALL PIPE PENETRATION
340
0
102
{BLKREFS
331
136
102
}
 70
     0
280
     1
281
     0
  0
BLOCK_RECORD
  5
137
330
1
100
AcDbSymbolTableRecord
100
AcDbBlockTableRecord
  2
_ARDEX_ Lines - WPM 3000X DPM Membrane-768588-_X_ - AS-09 OPEN CUT WALL PIPE PENETRATION
340
0
102
{BLKREFS
331
13B
102
}
 70
     0
280
     1
281
     0
  0
BLOCK_RECORD
  5
13C
330
1
100
AcDbSymbolTableRecord
100
AcDbBlockTableRecord
  2
_ARDEX_ Lines - WPM 3000X DPM Membrane-768589-_X_ - AS-09 OPEN CUT WALL PIPE PENETRATION
340
0
102
{BLKREFS
331
140
102
}
 70
     0
280
     1
281
     0
  0
BLOCK_RECORD
  5
141
330
1
100
AcDbSymbolTableRecord
100
AcDbBlockTableRecord
  2
_ARDEX_ Lines - WPM 3000X DPM Membrane-768607-_X_ - AS-09 OPEN CUT WALL PIPE PENETRATION
340
0
102
{BLKREFS
331
145
102
}
 70
     0
280
     1
281
     0
  0
BLOCK_RECORD
  5
146
330
1
100
AcDbSymbolTableRecord
100
AcDbBlockTableRecord
  2
_ARDEX_ Lines - WPM 3000X DPM Membrane-768608-_X_ - AS-09 OPEN CUT WALL PIPE PENETRATION
340
0
102
{BLKREFS
331
14A
102
}
 70
     0
280
     1
281
     0
  0
BLOCK_RECORD
  5
14B
330
1
100
AcDbSymbolTableRecord
100
AcDbBlockTableRecord
  2
_ARDEX_ Lines - WPM 3000X DPM Membrane-768609-_X_ - AS-09 OPEN CUT WALL PIPE PENETRATION
340
0
102
{BLKREFS
331
14F
102
}
 70
     0
280
     1
281
     0
  0
BLOCK_RECORD
  5
150
330
1
100
AcDbSymbolTableRecord
100
AcDbBlockTableRecord
  2
_ARDEX_ Lines - WPM 3000X DPM Membrane-768610-_X_ - AS-09 OPEN CUT WALL PIPE PENETRATION
340
0
102
{BLKREFS
331
154
102
}
 70
     0
280
     1
281
     0
  0
BLOCK_RECORD
  5
155
330
1
100
AcDbSymbolTableRecord
100
AcDbBlockTableRecord
  2
_ARDEX_ Lines - RA 030 Sealant-765039-_X_ - AS-09 OPEN CUT WALL PIPE PENETRATION
340
0
102
{BLKREFS
331
159
102
}
 70
     0
280
     1
281
     0
  0
BLOCK_RECORD
  5
15B
330
1
100
AcDbSymbolTableRecord
100
AcDbBlockTableRecord
  2
_ARDEX_ Lines - WPM 3000X DPM Membrane-768579-_X_ - AS-09 OPEN CUT WALL PIPE PENETRATION
340
0
102
{BLKREFS
331
15F
102
}
 70
     0
280
     1
281
     0
  0
BLOCK_RECORD
  5
160
330
1
100
AcDbSymbolTableRecord
100
AcDbBlockTableRecord
  2
_ARDEX_ Lines - WPM 3000X DPM Membrane-768580-_X_ - AS-09 OPEN CUT WALL PIPE PENETRATION
340
0
102
{BLKREFS
331
164
102
}
 70
     0
280
     1
281
     0
  0
BLOCK_RECORD
  5
165
330
1
100
AcDbSymbolTableRecord
100
AcDbBlockTableRecord
  2
_ARDEX_ Lines - WPM 3000X DPM Membrane-768581-_X_ - AS-09 OPEN CUT WALL PIPE PENETRATION
340
0
102
{BLKREFS
331
169
331
189
102
}
 70
     0
280
     1
281
     0
  0
BLOCK_RECORD
  5
16A
330
1
100
AcDbSymbolTableRecord
100
AcDbBlockTableRecord
  2
_ARDEX_ Lines - WPM 3000X DPM Membrane-768582-_X_ - AS-09 OPEN CUT WALL PIPE PENETRATION
340
0
102
{BLKREFS
331
16E
102
}
 70
     0
280
     1
281
     0
  0
BLOCK_RECORD
  5
16F
330
1
100
AcDbSymbolTableRecord
100
AcDbBlockTableRecord
  2
_ARDEX_ Lines - RA 030 Sealant-765198-_X_ - AS-09 OPEN CUT WALL PIPE PENETRATION
340
0
102
{BLKREFS
331
173
102
}
 70
     0
280
     1
281
     0
  0
BLOCK_RECORD
  5
175
330
1
100
AcDbSymbolTableRecord
100
AcDbBlockTableRecord
  2
_ARDEX_ Lines - WPM240 Primer-766617-_X_ - AS-09 OPEN CUT WALL PIPE PENETRATION
340
0
102
{BLKREFS
331
179
102
}
 70
     0
280
     1
281
     0
  0
BLOCK_RECORD
  5
17A
330
1
100
AcDbSymbolTableRecord
100
AcDbBlockTableRecord
  2
_ARDEX_ Lines - WPM 3000X DPM Membrane-768611-_X_ - AS-09 OPEN CUT WALL PIPE PENETRATION
340
0
102
{BLKREFS
331
17E
102
}
 70
     0
280
     1
281
     0
  0
BLOCK_RECORD
  5
17F
330
1
100
AcDbSymbolTableRecord
100
AcDbBlockTableRecord
  2
_ARDEX_ Lines - WPM 3000X DPM Membrane-768612-_X_ - AS-09 OPEN CUT WALL PIPE PENETRATION
340
0
102
{BLKREFS
331
183
102
}
 70
     0
280
     1
281
     0
  0
BLOCK_RECORD
  5
184
330
1
100
AcDbSymbolTableRecord
100
AcDbBlockTableRecord
  2
_ARDEX_ Lines - WPM 3000X DPM Membrane-768613-_X_ - AS-09 OPEN CUT WALL PIPE PENETRATION
340
0
102
{BLKREFS
331
188
102
}
 70
     0
280
     1
281
     0
  0
BLOCK_RECORD
  5
18A
330
1
100
AcDbSymbolTableRecord
100
AcDbBlockTableRecord
  2
_ARDEX_ Lines - WPM 3000X DPM Membrane-768618-_X_ - AS-09 OPEN CUT WALL PIPE PENETRATION
340
0
102
{BLKREFS
331
18E
102
}
 70
     0
280
     1
281
     0
  0
BLOCK_RECORD
  5
18F
330
1
100
AcDbSymbolTableRecord
100
AcDbBlockTableRecord
  2
_ARDEX_ Lines - WPM 3000X DPM Membrane-768619-_X_ - AS-09 OPEN CUT WALL PIPE PENETRATION
340
0
102
{BLKREFS
331
193
102
}
 70
     0
280
     1
281
     0
  0
BLOCK_RECORD
  5
194
330
1
100
AcDbSymbolTableRecord
100
AcDbBlockTableRecord
  2
_ARDEX_ Lines - WPM240 Primer-766992-_X_ - AS-09 OPEN CUT WALL PIPE PENETRATION
340
0
102
{BLKREFS
331
198
102
}
 70
     0
280
     1
281
     0
  0
BLOCK_RECORD
  5
1CD
330
1
100
AcDbSymbolTableRecord
100
AcDbBlockTableRecord
  2
_ARDEX_ Landscape Title block Weldtec Tanking - ARDEX Logo_dwg-792302-OPEN CUT WALL PIPE PENETRATION
340
0
102
{BLKREFS
331
25A
102
}
 70
     0
280
     1
281
     0
  0
BLOCK_RECORD
  5
230
330
1
100
AcDbSymbolTableRecord
100
AcDbBlockTableRecord
  2
_ARDEX_ Landscape Title block Weldtec Tanking - WPM 3000X-677308-OPEN CUT WALL PIPE PENETRATION
340
0
102
{BLKREFS
331
25D
102
}
 70
     0
280
     1
281
     0
  0
ENDTAB
  0
ENDSEC
  0
SECTION
  2
BLOCKS
  0
BLOCK
  5
71
330
70
100
AcDbEntity
  8
0
100
AcDbBlockBegin
  2
*Model_Space
 70
     0
 10
0.0
 20
0.0
 30
0.0
  3
*Model_Space
  1

  0
ENDBLK
  5
72
330
70
100
AcDbEntity
  8
0
100
AcDbBlockEnd
  0
BLOCK
  5
6D
330
6C
100
AcDbEntity
 67
     1
  8
0
100
AcDbBlockBegin
  2
*Paper_Space
 70
     0
 10
0.0
 20
0.0
 30
0.0
  3
*Paper_Space
  1

  0
ENDBLK
  5
6E
330
6C
100
AcDbEntity
 67
     1
  8
0
100
AcDbBlockEnd
  0
BLOCK
  5
75
330
74
100
AcDbEntity
 67
     1
  8
0
100
AcDbBlockBegin
  2
*Paper_Space0
 70
     0
 10
0.0
 20
0.0
 30
0.0
  3
*Paper_Space0
  1

  0
ENDBLK
  5
76
330
74
100
AcDbEntity
 67
     1
  8
0
100
AcDbBlockEnd
  0
BLOCK
  5
C6
330
BE
100
AcDbEntity
  8
0
100
AcDbBlockBegin
  2
_ARDEX_ Fillet - _ARDEX_ Fillet 12mm-766149-_X_ - AS-09 OPEN CUT WALL PIPE PENETRATION
 70
     0
 10
0.0
 20
0.0
 30
0.0
  3
_ARDEX_ Fillet - _ARDEX_ Fillet 12mm-766149-_X_ - AS-09 OPEN CUT WALL PIPE PENETRATION
  1

  0
HATCH
  5
C2
330
BE
100
AcDbEntity
  8
_ARDEX - WELDTEC TANKING_
 62
     9
420
 12632256
100
AcDbHatch
 10
0.0
 20
0.0
 30
0.0
210
0.0
220
0.0
230
1.0
  2
SOLID
 70
     1
 71
     0
 91
        1
 92
        1
 93
        3
 72
     1
 10
-11.99999999999862
 20
-0.0000000000025718
 11
0.0000000000014211
 21
-12.00000000000255
 72
     1
 10
0.0000000000014213
 20
-12.00000000000255
 11
0.0000000000013874
 21
-0.0000000000025047
 72
     1
 10
0.0000000000013874
 20
-0.0000000000025041
 11
-11.99999999999862
 21
-0.0000000000025718
 97
        0
 75
     0
 76
     1
 98
        1
 10
0.0
 20
0.0
450
        0
451
        0
460
0.0
461
0.0
452
        0
462
0.0
453
        0
470

1001
REVIT
1002
{
1070
     1
1000
768538
1002
}
1002
{
1070
     5
1000
766022
1002
}
  0
LINE
  5
C4
330
BE
100
AcDbEntity
  8
_ARDEX - BUTYNOL_
100
AcDbLine
 10
-12.0
 20
0.0
 30
0.0
 11
0.0
 21
-12.0
 31
0.0
1001
REVIT
1002
{
1070
     1
1000
768538
1002
}
1002
{
1070
     5
1000
766022
1002
}
1002
{
1070
     3
1000
335610
1002
}
  0
LINE
  5
C5
330
BE
100
AcDbEntity
  8
_ARDEX - BUTYNOL_
100
AcDbLine
 10
0.0
 20
0.0
 30
0.0
 11
-12.0
 21
0.0
 31
0.0
1001
REVIT
1002
{
1070
     1
1000
768538
1002
}
1002
{
1070
     5
1000
766022
1002
}
1002
{
1070
     3
1000
335610
1002
}
  0
ENDBLK
  5
C7
330
BE
100
AcDbEntity
  8
0
100
AcDbBlockEnd
  0
BLOCK
  5
D0
330
C9
100
AcDbEntity
  8
0
100
AcDbBlockBegin
  2
_ARDEX_ Fillet - _ARDEX_ Fillet 12mm-766022-_X_ - AS-09 OPEN CUT WALL PIPE PENETRATION
 70
     0
 10
0.0
 20
0.0
 30
0.0
  3
_ARDEX_ Fillet - _ARDEX_ Fillet 12mm-766022-_X_ - AS-09 OPEN CUT WALL PIPE PENETRATION
  1

  0
HATCH
  5
CD
330
C9
100
AcDbEntity
  8
_ARDEX - WELDTEC TANKING_
 62
     9
420
 12632256
100
AcDbHatch
 10
0.0
 20
0.0
 30
0.0
210
0.0
220
0.0
230
1.0
  2
SOLID
 70
     1
 71
     0
 91
        1
 92
        1
 93
        3
 72
     1
 10
-0.000000000001895
 20
12.00000000000248
 11
-12.00000000000191
 21
0.0000000000025047
 72
     1
 10
-12.00000000000191
 20
0.0000000000025041
 11
-0.0000000000018954
 21
0.0000000000024365
 72
     1
 10
-0.000000000001895
 20
0.0000000000024365
 11
-0.000000000001895
 21
12.00000000000248
 97
        0
 75
     0
 76
     1
 98
        1
 10
0.0
 20
0.0
450
        0
451
        0
460
0.0
461
0.0
452
        0
462
0.0
453
        0
470

1001
REVIT
1002
{
1070
     1
1000
768512
1002
}
1002
{
1070
     5
1000
766022
1002
}
  0
LINE
  5
CE
330
C9
100
AcDbEntity
  8
_ARDEX - BUTYNOL_
100
AcDbLine
 10
-12.0
 20
0.0
 30
0.0
 11
0.0
 21
0.0
 31
0.0
1001
REVIT
1002
{
1070
     1
1000
768512
1002
}
1002
{
1070
     5
1000
766022
1002
}
1002
{
1070
     3
1000
335610
1002
}
  0
LINE
  5
CF
330
C9
100
AcDbEntity
  8
_ARDEX - BUTYNOL_
100
AcDbLine
 10
0.0
 20
12.0
 30
0.0
 11
-12.0
 21
0.0
 31
0.0
1001
REVIT
1002
{
1070
     1
1000
768512
1002
}
1002
{
1070
     5
1000
766022
1002
}
1002
{
1070
     3
1000
335610
1002
}
  0
ENDBLK
  5
D1
330
C9
100
AcDbEntity
  8
0
100
AcDbBlockEnd
  0
BLOCK
  5
EE
330
D3
100
AcDbEntity
  8
0
100
AcDbBlockBegin
  2
_ARDEX_ Lining - Various - Concrete Wall 150-765586-_X_ - AS-09 OPEN CUT WALL PIPE PENETRATION
 70
     0
 10
0.0
 20
0.0
 30
0.0
  3
_ARDEX_ Lining - Various - Concrete Wall 150-765586-_X_ - AS-09 OPEN CUT WALL PIPE PENETRATION
  1

  0
LINE
  5
D4
330
D3
100
AcDbEntity
  8
_ARDEX - BUTYNOL_
370
     9
100
AcDbLine
 10
0.0
 20
150.0
 30
0.0
 11
146.78396469343
 21
150.0
 31
0.0
1001
REVIT
1002
{
1070
     1
1000
768499
1002
}
1002
{
1070
     5
1000
753775
1002
}
1002
{
1070
     3
1000
335606
1002
}
  0
LINE
  5
D5
330
D3
100
AcDbEntity
  8
_ARDEX - BUTYNOL_
370
     9
100
AcDbLine
 10
196.7839646934301
 20
150.0
 30
0.0
 11
334.9999999999996
 21
150.0
 31
0.0
1001
REVIT
1002
{
1070
     1
1000
768499
1002
}
1002
{
1070
     5
1000
753775
1002
}
1002
{
1070
     3
1000
335606
1002
}
  0
LINE
  5
D6
330
D3
100
AcDbEntity
  8
_ARDEX - BUTYNOL_
370
     9
100
AcDbLine
 10
0.0
 20
0.0
 30
0.0
 11
146.7839646934306
 21
0.0
 31
0.0
1001
REVIT
1002
{
1070
     1
1000
768499
1002
}
1002
{
1070
     5
1000
753775
1002
}
1002
{
1070
     3
1000
335606
1002
}
  0
LINE
  5
D7
330
D3
100
AcDbEntity
  8
_ARDEX - BUTYNOL_
370
     9
100
AcDbLine
 10
196.7839646934307
 20
0.0
 30
0.0
 11
334.9999999999996
 21
0.0
 31
0.0
1001
REVIT
1002
{
1070
     1
1000
768499
1002
}
1002
{
1070
     5
1000
753775
1002
}
1002
{
1070
     3
1000
335606
1002
}
  0
HATCH
  5
E9
330
D3
100
AcDbEntity
  8
_ARDEX - BUTYNOL_
 62
     8
420
  8421504
370
     9
100
AcDbHatch
 10
0.0
 20
0.0
 30
0.0
210
0.0
220
0.0
230
1.0
  2
FP_1
 70
     0
 71
     0
 91
        2
 92
        1
 93
        9
 72
     1
 10
334.999999999998
 20
150.0000000000028
 11
196.7839646934285
 21
150.0000000000028
 72
     1
 10
196.7839646934285
 20
150.0000000000028
 11
196.783964693429
 21
79.64285425503721
 72
     1
 10
196.783964693429
 20
79.64285425503721
 11
203.647256518517
 21
79.64285425503726
 72
     1
 10
203.647256518517
 20
79.64285425503726
 11
203.6472565185171
 21
69.97520917198091
 72
     1
 10
203.6472565185171
 20
69.97520917198091
 11
196.783964693429
 21
69.97520917198084
 72
     1
 10
196.783964693429
 20
69.97520917198084
 11
196.7839646934295
 21
-0.0000000000000995
 72
     1
 10
196.7839646934295
 20
-0.0000000000001015
 11
334.999999999998
 21
-0.0000000000000677
 72
     1
 10
334.999999999998
 20
-0.0000000000000677
 11
334.999999999998
 21
79.64285425503807
 72
     1
 10
334.999999999998
 20
79.64285425503807
 11
334.999999999998
 21
150.0000000000028
 97
        0
 92
        1
 93
        8
 72
     1
 10
146.7839646934287
 20
-0.0000000000000677
 11
146.7839646934283
 21
69.97520917198049
 72
     1
 10
146.7839646934283
 20
69.97520917198049
 11
139.9206728683397
 21
69.97520917198049
 72
     1
 10
139.9206728683397
 20
69.97520917198049
 11
139.9206728683396
 21
79.64285425503686
 72
     1
 10
139.9206728683396
 20
79.64285425503686
 11
146.7839646934282
 21
79.64285425503686
 72
     1
 10
146.7839646934282
 20
79.64285425503686
 11
146.7839646934278
 21
150.0000000000028
 72
     1
 10
146.7839646934278
 20
150.0000000000028
 11
-0.0000000000019611
 21
150.0000000000029
 72
     1
 10
-0.0000000000019712
 20
150.0000000000029
 11
-0.0000000000019796
 21
-0.0000000000000568
 72
     1
 10
-0.0000000000019796
 20
-0.0000000000000677
 11
146.7839646934287
 21
-0.0000000000000677
 97
        0
 75
     0
 76
     2
 52
0.0
 41
1.0
 77
     0
 78
    17
 53
140.0
 43
2635.419000000001
 44
-3607.804
 45
1.275164535438712
 46
14.57531627127039
 79
     2
 49
1.524
 49
-16.764
 53
85.0
 43
2635.419000000001
 44
-3607.804
 45
-15.28490470283049
 46
-2.819562062695251
 79
     2
 49
1.219
 49
-13.411
 53
190.451
 43
2635.526
 44
-3606.589
 45
-14.00984028402569
 46
11.75571368382587
 79
     2
 49
1.294999999999999
 49
-14.247
 53
136.1839999999999
 43
2631.355
 44
-3607.804
 45
3.363917892530039
 46
21.68615121252078
 79
     2
 49
2.286
 49
-25.146
 53
186.636
 43
2631.636
 44
-3605.997000000001
 45
-19.79432949781672
 46
18.99178013593941
 79
     2
 49
1.942999999999999
 49
-21.371
 53
81.18399999999999
 43
2631.355
 44
-3607.804
 45
-19.79409800004729
 46
18.99205837618776
 79
     2
 49
1.828999999999999
 49
-20.117
 53
111.0
 43
2632.371
 44
-3605.772
 45
8.181537578984801
 46
12.12964681446494
 79
     2
 49
1.524
 49
-16.764
 53
56.0
 43
2632.371
 44
-3605.772
 45
-14.73542968771944
 46
4.94422429894483
 79
     2
 49
1.219
 49
-13.411
 53
161.451
 43
2633.053
 44
-3604.761
 45
-6.55399931950397
 46
17.0738842071727
 79
     2
 49
1.294999999999999
 49
-14.247
 53
127.5
 43
2635.419000000001
 44
-3607.804
 45
-6.764327827702704
 46
0.2472266963069014
 79
     5
 49
0.6705600000000001
 49
-12.578
 49
0.6705600000000001
 49
-12.944
 49
-13.462
 53
127.5
 43
2635.419000000001
 44
-3607.804
 45
-6.764327827702704
 46
0.2472266963069014
 79
     3
 49
-26.86300000000001
 49
0.6705600000000001
 49
-12.791
 53
97.5
 43
2635.419000000001
 44
-3607.804
 45
-8.014311571065825
 46
5.345655249067267
 79
     5
 49
0.6705600000000001
 49
-7.092
 49
0.6705600000000001
 49
-12.273
 49
-5.131
 53
97.5
 43
2635.419000000001
 44
-3607.804
 45
-8.014311571065825
 46
5.345655249067267
 79
     3
 49
-20.706
 49
0.6705600000000001
 49
-4.459999999999999
 53
57.5
 43
2635.419000000001
 44
-3612.335
 45
0.4581935723046869
 46
10.84764710203547
 79
     5
 49
0.67056
 49
-4.408999999999998
 49
0.67056
 49
-15.179
 49
-21.03099999999999
 53
57.5
 43
2635.419000000001
 44
-3612.335
 45
0.4581935723046869
 46
10.84764710203547
 79
     3
 49
-20.92999999999999
 49
0.67056
 49
-20.361
 53
47.5
 43
2635.419000000001
 44
-3614.367
 45
-2.034187665042933
 46
11.85073354452741
 79
     5
 49
0.6705600000000001
 49
-5.932999999999999
 49
0.6705600000000001
 49
-9.855
 49
-14.935
 53
47.5
 43
2635.419000000001
 44
-3614.367
 45
-2.034187665042933
 46
11.85073354452741
 79
     3
 49
-17.13
 49
0.6705600000000001
 49
-14.265
 98
        1
 10
0.0
 20
0.0
1001
REVIT
1002
{
1070
     1
1000
768499
1002
}
1002
{
1070
     5
1000
753775
1002
}
1002
{
1070
     3
1000
335606
1002
}
  0
LINE
  5
EA
330
D3
100
AcDbEntity
  8
_ARDEX - BUTYNOL_
370
    50
100
AcDbLine
 10
0.0
 20
-0.0000000000028087
 30
0.0
 11
146.7839646934306
 21
-0.0000000000028087
 31
0.0
1001
REVIT
1002
{
1070
     1
1000
768499
1002
}
1002
{
1070
     5
1000
753775
1002
}
1002
{
1070
     3
1000
335612
1002
}
  0
LINE
  5
EB
330
D3
100
AcDbEntity
  8
_ARDEX - BUTYNOL_
370
    50
100
AcDbLine
 10
196.7839646934307
 20
-0.0000000000028087
 30
0.0
 11
334.9999999999996
 21
-0.0000000000028087
 31
0.0
1001
REVIT
1002
{
1070
     1
1000
768499
1002
}
1002
{
1070
     5
1000
753775
1002
}
1002
{
1070
     3
1000
335612
1002
}
  0
LINE
  5
EC
330
D3
100
AcDbEntity
  8
_ARDEX - BUTYNOL_
370
    50
100
AcDbLine
 10
334.9999999999996
 20
150.0
 30
0.0
 11
196.7839646934301
 21
150.0
 31
0.0
1001
REVIT
1002
{
1070
     1
1000
768499
1002
}
1002
{
1070
     5
1000
753775
1002
}
1002
{
1070
     3
1000
335612
1002
}
  0
LINE
  5
ED
330
D3
100
AcDbEntity
  8
_ARDEX - BUTYNOL_
370
    50
100
AcDbLine
 10
146.7839646934301
 20
150.0
 30
0.0
 11
0.0
 21
150.0
 31
0.0
1001
REVIT
1002
{
1070
     1
1000
768499
1002
}
1002
{
1070
     5
1000
753775
1002
}
1002
{
1070
     3
1000
335612
1002
}
  0
ENDBLK
  5
EF
330
D3
100
AcDbEntity
  8
0
100
AcDbBlockEnd
  0
BLOCK
  5
F3
330
F1
100
AcDbEntity
  8
0
100
AcDbBlockBegin
  2
_ARDEX_ Lines - WPM 3000X DPM Membrane-768594-_X_ - AS-09 OPEN CUT WALL PIPE PENETRATION
 70
     0
 10
0.0
 20
0.0
 30
0.0
  3
_ARDEX_ Lines - WPM 3000X DPM Membrane-768594-_X_ - AS-09 OPEN CUT WALL PIPE PENETRATION
  1

  0
LINE
  5
F2
330
F1
100
AcDbEntity
  8
_ARDEX - WELDTEC TANKING_
 62
   133
420
  7589074
370
    90
100
AcDbLine
 10
131.9175369729145
 20
0.0
 30
0.0
 11
-0.0000000000027072
 21
0.0
 31
0.0
1001
REVIT
1002
{
1070
     1
1000
768506
1002
}
1002
{
1070
     5
1000
767633
1002
}
1002
{
1070
     3
1000
614484
1002
}
  0
ENDBLK
  5
F4
330
F1
100
AcDbEntity
  8
0
100
AcDbBlockEnd
  0
BLOCK
  5
FB
330
F6
100
AcDbEntity
  8
0
100
AcDbBlockBegin
  2
_ARDEX_ Lining - Various - Pipe-763482-_X_ - AS-09 OPEN CUT WALL PIPE PENETRATION
 70
     0
 10
0.0
 20
0.0
 30
0.0
  3
_ARDEX_ Lining - Various - Pipe-763482-_X_ - AS-09 OPEN CUT WALL PIPE PENETRATION
  1

  0
LINE
  5
F7
330
F6
100
AcDbEntity
  8
_ARDEX - BUTYNOL_
100
AcDbLine
 10
0.0
 20
50.0
 30
0.0
 11
98.42846640107188
 21
50.0
 31
0.0
1001
REVIT
1002
{
1070
     1
1000
768498
1002
}
1002
{
1070
     5
1000
517035
1002
}
1002
{
1070
     3
1000
335610
1002
}
  0
LINE
  5
F8
330
F6
100
AcDbEntity
  8
_ARDEX - BUTYNOL_
100
AcDbLine
 10
108.0961114841282
 20
50.0
 30
0.0
 11
300.5332818473446
 21
50.0
 31
0.0
1001
REVIT
1002
{
1070
     1
1000
768498
1002
}
1002
{
1070
     5
1000
517035
1002
}
1002
{
1070
     3
1000
335610
1002
}
  0
LINE
  5
F9
330
F6
100
AcDbEntity
  8
_ARDEX - BUTYNOL_
100
AcDbLine
 10
0.0
 20
0.0
 30
0.0
 11
98.42846640107204
 21
0.0
 31
0.0
1001
REVIT
1002
{
1070
     1
1000
768498
1002
}
1002
{
1070
     5
1000
517035
1002
}
1002
{
1070
     3
1000
335610
1002
}
  0
LINE
  5
FA
330
F6
100
AcDbEntity
  8
_ARDEX - BUTYNOL_
100
AcDbLine
 10
108.0961114841284
 20
0.0
 30
0.0
 11
300.5332818473446
 21
0.0
 31
0.0
1001
REVIT
1002
{
1070
     1
1000
768498
1002
}
1002
{
1070
     5
1000
517035
1002
}
1002
{
1070
     3
1000
335610
1002
}
  0
ENDBLK
  5
FC
330
F6
100
AcDbEntity
  8
0
100
AcDbBlockEnd
  0
BLOCK
  5
106
330
104
100
AcDbEntity
  8
0
100
AcDbBlockBegin
  2
_ARDEX_ Lines - RA 030 Sealant-764984-_X_ - AS-09 OPEN CUT WALL PIPE PENETRATION
 70
     0
 10
0.0
 20
0.0
 30
0.0
  3
_ARDEX_ Lines - RA 030 Sealant-764984-_X_ - AS-09 OPEN CUT WALL PIPE PENETRATION
  1

  0
LINE
  5
105
330
104
100
AcDbEntity
  8
_ARDEX - WELDTEC TANKING_
 62
     8
420
  8421504
370
    50
100
AcDbLine
 10
9.999999999997184
 20
0.0
 30
0.0
 11
-0.0000000000027072
 21
0.0
 31
0.0
1001
REVIT
1002
{
1070
     1
1000
768507
1002
}
1002
{
1070
     5
1000
605262
1002
}
1002
{
1070
     3
1000
605361
1002
}
  0
ENDBLK
  5
107
330
104
100
AcDbEntity
  8
0
100
AcDbBlockEnd
  0
BLOCK
  5
113
330
109
100
AcDbEntity
  8
0
100
AcDbBlockBegin
  2
_ARDEX_ Waterstop - _ARDEX_ Water Stop-763835-_X_ - AS-09 OPEN CUT WALL PIPE PENETRATION
 70
     0
 10
0.0
 20
0.0
 30
0.0
  3
_ARDEX_ Waterstop - _ARDEX_ Water Stop-763835-_X_ - AS-09 OPEN CUT WALL PIPE PENETRATION
  1

  0
HATCH
  5
10E
330
109
100
AcDbEntity
  8
_ARDEX - WELDTEC TANKING_
 62
     8
420
  7434356
100
AcDbHatch
 10
0.0
 20
0.0
 30
0.0
210
0.0
220
0.0
230
1.0
  2
SOLID
 70
     1
 71
     0
 91
        1
 92
        1
 93
        4
 72
     1
 10
0.0000000000028425
 20
0.0000000000016581
 11
0.0000000000028425
 21
6.863291825090405
 72
     1
 10
0.0000000000028425
 20
6.863291825090405
 11
-9.667645083053518
 21
6.863291825090405
 72
     1
 10
-9.667645083053518
 20
6.863291825090405
 11
-9.667645083053518
 21
0.0000000000016582
 72
     1
 10
-9.667645083053518
 20
0.0000000000016581
 11
0.0000000000028422
 21
0.0000000000016581
 97
        0
 75
     0
 76
     1
 98
        1
 10
0.0
 20
0.0
450
        0
451
        0
460
0.0
461
0.0
452
        0
462
0.0
453
        0
470

1001
REVIT
1002
{
1070
     1
1000
768508
1002
}
1002
{
1070
     5
1000
707735
1002
}
  0
LINE
  5
10F
330
109
100
AcDbEntity
  8
_ARDEX - BUTYNOL_
100
AcDbLine
 10
-9.66764508305636
 20
0.0
 30
0.0
 11
0.0
 21
0.0
 31
0.0
1001
REVIT
1002
{
1070
     1
1000
768508
1002
}
1002
{
1070
     5
1000
707735
1002
}
1002
{
1070
     3
1000
335610
1002
}
  0
LINE
  5
110
330
109
100
AcDbEntity
  8
_ARDEX - BUTYNOL_
100
AcDbLine
 10
0.0
 20
0.0
 30
0.0
 11
0.0
 21
6.863291825088738
 31
0.0
1001
REVIT
1002
{
1070
     1
1000
768508
1002
}
1002
{
1070
     5
1000
707735
1002
}
1002
{
1070
     3
1000
335610
1002
}
  0
LINE
  5
111
330
109
100
AcDbEntity
  8
_ARDEX - BUTYNOL_
100
AcDbLine
 10
0.0
 20
6.863291825088738
 30
0.0
 11
-9.66764508305636
 21
6.863291825088738
 31
0.0
1001
REVIT
1002
{
1070
     1
1000
768508
1002
}
1002
{
1070
     5
1000
707735
1002
}
1002
{
1070
     3
1000
335610
1002
}
  0
LINE
  5
112
330
109
100
AcDbEntity
  8
_ARDEX - BUTYNOL_
100
AcDbLine
 10
-9.66764508305636
 20
6.863291825088738
 30
0.0
 11
-9.66764508305636
 21
0.0
 31
0.0
1001
REVIT
1002
{
1070
     1
1000
768508
1002
}
1002
{
1070
     5
1000
707735
1002
}
1002
{
1070
     3
1000
335610
1002
}
  0
ENDBLK
  5
114
330
109
100
AcDbEntity
  8
0
100
AcDbBlockEnd
  0
BLOCK
  5
11B
330
119
100
AcDbEntity
  8
0
100
AcDbBlockBegin
  2
_ARDEX_ Lines - WPM 3000X DPM Underflashing Membrane-768571-_X_ - AS-09 OPEN CUT WALL PIPE PENETRATION
 70
     0
 10
0.0
 20
0.0
 30
0.0
  3
_ARDEX_ Lines - WPM 3000X DPM Underflashing Membrane-768571-_X_ - AS-09 OPEN CUT WALL PIPE PENETRATION
  1

  0
LINE
  5
11A
330
119
100
AcDbEntity
  8
_ARDEX - BUTYNOL_
  6
Dash
 62
   133
420
  7589074
370
   100
100
AcDbLine
 10
51.58095077998817
 20
0.0
 30
0.0
 11
-0.0000000000027072
 21
0.0
 31
0.0
1001
REVIT
1002
{
1070
     1
1000
768513
1002
}
1002
{
1070
     5
1000
767708
1002
}
1002
{
1070
     3
1000
352413
1002
}
  0
ENDBLK
  5
11C
330
119
100
AcDbEntity
  8
0
100
AcDbBlockEnd
  0
BLOCK
  5
120
330
11E
100
AcDbEntity
  8
0
100
AcDbBlockBegin
  2
_ARDEX_ Lines - WPM 3000X DPM Underflashing Membrane-768572-_X_ - AS-09 OPEN CUT WALL PIPE PENETRATION
 70
     0
 10
0.0
 20
0.0
 30
0.0
  3
_ARDEX_ Lines - WPM 3000X DPM Underflashing Membrane-768572-_X_ - AS-09 OPEN CUT WALL PIPE PENETRATION
  1

  0
LINE
  5
11F
330
11E
100
AcDbEntity
  8
_ARDEX - BUTYNOL_
  6
Dash
 62
   133
420
  7589074
370
   100
100
AcDbLine
 10
6.550994529895223
 20
0.0
 30
0.0
 11
-0.0000000000027072
 21
0.0
 31
0.0
1001
REVIT
1002
{
1070
     1
1000
768514
1002
}
1002
{
1070
     5
1000
767708
1002
}
1002
{
1070
     3
1000
352413
1002
}
  0
ENDBLK
  5
121
330
11E
100
AcDbEntity
  8
0
100
AcDbBlockEnd
  0
BLOCK
  5
125
330
123
100
AcDbEntity
  8
0
100
AcDbBlockBegin
  2
_ARDEX_ Lines - WPM 3000X DPM Underflashing Membrane-768573-_X_ - AS-09 OPEN CUT WALL PIPE PENETRATION
 70
     0
 10
0.0
 20
0.0
 30
0.0
  3
_ARDEX_ Lines - WPM 3000X DPM Underflashing Membrane-768573-_X_ - AS-09 OPEN CUT WALL PIPE PENETRATION
  1

  0
LINE
  5
124
330
123
100
AcDbEntity
  8
_ARDEX - BUTYNOL_
  6
Dash
 62
   133
420
  7589074
370
   100
100
AcDbLine
 10
48.5809507799895
 20
0.0
 30
0.0
 11
-0.0000000000027072
 21
0.0
 31
0.0
1001
REVIT
1002
{
1070
     1
1000
768515
1002
}
1002
{
1070
     5
1000
767708
1002
}
1002
{
1070
     3
1000
352413
1002
}
  0
ENDBLK
  5
126
330
123
100
AcDbEntity
  8
0
100
AcDbBlockEnd
  0
BLOCK
  5
12A
330
128
100
AcDbEntity
  8
0
100
AcDbBlockBegin
  2
_ARDEX_ Lines - WPM 3000X DPM Membrane-768587-_X_ - AS-09 OPEN CUT WALL PIPE PENETRATION
 70
     0
 10
0.0
 20
0.0
 30
0.0
  3
_ARDEX_ Lines - WPM 3000X DPM Membrane-768587-_X_ - AS-09 OPEN CUT WALL PIPE PENETRATION
  1

  0
LINE
  5
129
330
128
100
AcDbEntity
  8
_ARDEX - WELDTEC TANKING_
 62
   133
420
  7589074
370
    90
100
AcDbLine
 10
126.7718421091645
 20
0.0
 30
0.0
 11
-0.0000000000027072
 21
0.0
 31
0.0
1001
REVIT
1002
{
1070
     1
1000
768526
1002
}
1002
{
1070
     5
1000
767633
1002
}
1002
{
1070
     3
1000
614484
1002
}
  0
ENDBLK
  5
12B
330
128
100
AcDbEntity
  8
0
100
AcDbBlockEnd
  0
BLOCK
  5
12F
330
12D
100
AcDbEntity
  8
0
100
AcDbBlockBegin
  2
_ARDEX_ Lines - RA 030 Sealant-765191-_X_ - AS-09 OPEN CUT WALL PIPE PENETRATION
 70
     0
 10
0.0
 20
0.0
 30
0.0
  3
_ARDEX_ Lines - RA 030 Sealant-765191-_X_ - AS-09 OPEN CUT WALL PIPE PENETRATION
  1

  0
LINE
  5
12E
330
12D
100
AcDbEntity
  8
_ARDEX - WELDTEC TANKING_
 62
     8
420
  8421504
370
    50
100
AcDbLine
 10
9.999999999997184
 20
0.0
 30
0.0
 11
-0.0000000000027072
 21
0.0
 31
0.0
1001
REVIT
1002
{
1070
     1
1000
768527
1002
}
1002
{
1070
     5
1000
605262
1002
}
1002
{
1070
     3
1000
605361
1002
}
  0
ENDBLK
  5
130
330
12D
100
AcDbEntity
  8
0
100
AcDbBlockEnd
  0
BLOCK
  5
134
330
132
100
AcDbEntity
  8
0
100
AcDbBlockBegin
  2
_ARDEX_ Lines - WPM 3000X DPM Membrane-768578-_X_ - AS-09 OPEN CUT WALL PIPE PENETRATION
 70
     0
 10
0.0
 20
0.0
 30
0.0
  3
_ARDEX_ Lines - WPM 3000X DPM Membrane-768578-_X_ - AS-09 OPEN CUT WALL PIPE PENETRATION
  1

  0
LINE
  5
133
330
132
100
AcDbEntity
  8
_ARDEX - WELDTEC TANKING_
 62
   133
420
  7589074
370
    90
100
AcDbLine
 10
47.33831009287032
 20
0.0
 30
0.0
 11
-0.0000000000027072
 21
0.0
 31
0.0
1001
REVIT
1002
{
1070
     1
1000
768528
1002
}
1002
{
1070
     5
1000
767633
1002
}
1002
{
1070
     3
1000
614484
1002
}
  0
ENDBLK
  5
135
330
132
100
AcDbEntity
  8
0
100
AcDbBlockEnd
  0
BLOCK
  5
139
330
137
100
AcDbEntity
  8
0
100
AcDbBlockBegin
  2
_ARDEX_ Lines - WPM 3000X DPM Membrane-768588-_X_ - AS-09 OPEN CUT WALL PIPE PENETRATION
 70
     0
 10
0.0
 20
0.0
 30
0.0
  3
_ARDEX_ Lines - WPM 3000X DPM Membrane-768588-_X_ - AS-09 OPEN CUT WALL PIPE PENETRATION
  1

  0
LINE
  5
138
330
137
100
AcDbEntity
  8
_ARDEX - WELDTEC TANKING_
 62
   133
420
  7589074
370
    90
100
AcDbLine
 10
11.33259382689997
 20
0.0
 30
0.0
 11
-0.0000000000027072
 21
0.0
 31
0.0
1001
REVIT
1002
{
1070
     1
1000
768529
1002
}
1002
{
1070
     5
1000
767633
1002
}
1002
{
1070
     3
1000
614484
1002
}
  0
ENDBLK
  5
13A
330
137
100
AcDbEntity
  8
0
100
AcDbBlockEnd
  0
BLOCK
  5
13E
330
13C
100
AcDbEntity
  8
0
100
AcDbBlockBegin
  2
_ARDEX_ Lines - WPM 3000X DPM Membrane-768589-_X_ - AS-09 OPEN CUT WALL PIPE PENETRATION
 70
     0
 10
0.0
 20
0.0
 30
0.0
  3
_ARDEX_ Lines - WPM 3000X DPM Membrane-768589-_X_ - AS-09 OPEN CUT WALL PIPE PENETRATION
  1

  0
LINE
  5
13D
330
13C
100
AcDbEntity
  8
_ARDEX - WELDTEC TANKING_
 62
   133
420
  7589074
370
    90
100
AcDbLine
 10
48.58095077999042
 20
0.0
 30
0.0
 11
-0.0000000000027072
 21
0.0
 31
0.0
1001
REVIT
1002
{
1070
     1
1000
768530
1002
}
1002
{
1070
     5
1000
767633
1002
}
1002
{
1070
     3
1000
614484
1002
}
  0
ENDBLK
  5
13F
330
13C
100
AcDbEntity
  8
0
100
AcDbBlockEnd
  0
BLOCK
  5
143
330
141
100
AcDbEntity
  8
0
100
AcDbBlockBegin
  2
_ARDEX_ Lines - WPM 3000X DPM Membrane-768607-_X_ - AS-09 OPEN CUT WALL PIPE PENETRATION
 70
     0
 10
0.0
 20
0.0
 30
0.0
  3
_ARDEX_ Lines - WPM 3000X DPM Membrane-768607-_X_ - AS-09 OPEN CUT WALL PIPE PENETRATION
  1

  0
LINE
  5
142
330
141
100
AcDbEntity
  8
_ARDEX - WELDTEC TANKING_
 62
   133
420
  7589074
370
    90
100
AcDbLine
 10
24.99999999999729
 20
0.0
 30
0.0
 11
-0.0000000000027072
 21
0.0
 31
0.0
1001
REVIT
1002
{
1070
     1
1000
768516
1002
}
1002
{
1070
     5
1000
767633
1002
}
1002
{
1070
     3
1000
614484
1002
}
  0
ENDBLK
  5
144
330
141
100
AcDbEntity
  8
0
100
AcDbBlockEnd
  0
BLOCK
  5
148
330
146
100
AcDbEntity
  8
0
100
AcDbBlockBegin
  2
_ARDEX_ Lines - WPM 3000X DPM Membrane-768608-_X_ - AS-09 OPEN CUT WALL PIPE PENETRATION
 70
     0
 10
0.0
 20
0.0
 30
0.0
  3
_ARDEX_ Lines - WPM 3000X DPM Membrane-768608-_X_ - AS-09 OPEN CUT WALL PIPE PENETRATION
  1

  0
LINE
  5
147
330
146
100
AcDbEntity
  8
_ARDEX - WELDTEC TANKING_
 62
   133
420
  7589074
370
    90
100
AcDbLine
 10
4.999999999997293
 20
0.0
 30
0.0
 11
-0.0000000000027072
 21
0.0
 31
0.0
1001
REVIT
1002
{
1070
     1
1000
768517
1002
}
1002
{
1070
     5
1000
767633
1002
}
1002
{
1070
     3
1000
614484
1002
}
  0
ENDBLK
  5
149
330
146
100
AcDbEntity
  8
0
100
AcDbBlockEnd
  0
BLOCK
  5
14D
330
14B
100
AcDbEntity
  8
0
100
AcDbBlockBegin
  2
_ARDEX_ Lines - WPM 3000X DPM Membrane-768609-_X_ - AS-09 OPEN CUT WALL PIPE PENETRATION
 70
     0
 10
0.0
 20
0.0
 30
0.0
  3
_ARDEX_ Lines - WPM 3000X DPM Membrane-768609-_X_ - AS-09 OPEN CUT WALL PIPE PENETRATION
  1

  0
LINE
  5
14C
330
14B
100
AcDbEntity
  8
_ARDEX - WELDTEC TANKING_
 62
   133
420
  7589074
370
    90
100
AcDbLine
 10
48.84550768364976
 20
0.0
 30
0.0
 11
-0.0000000000027072
 21
0.0
 31
0.0
1001
REVIT
1002
{
1070
     1
1000
768518
1002
}
1002
{
1070
     5
1000
767633
1002
}
1002
{
1070
     3
1000
614484
1002
}
  0
ENDBLK
  5
14E
330
14B
100
AcDbEntity
  8
0
100
AcDbBlockEnd
  0
BLOCK
  5
152
330
150
100
AcDbEntity
  8
0
100
AcDbBlockBegin
  2
_ARDEX_ Lines - WPM 3000X DPM Membrane-768610-_X_ - AS-09 OPEN CUT WALL PIPE PENETRATION
 70
     0
 10
0.0
 20
0.0
 30
0.0
  3
_ARDEX_ Lines - WPM 3000X DPM Membrane-768610-_X_ - AS-09 OPEN CUT WALL PIPE PENETRATION
  1

  0
LINE
  5
151
330
150
100
AcDbEntity
  8
_ARDEX - WELDTEC TANKING_
 62
   133
420
  7589074
370
    90
100
AcDbLine
 10
4.062439067789445
 20
0.0
 30
0.0
 11
-0.0000000000027072
 21
0.0
 31
0.0
1001
REVIT
1002
{
1070
     1
1000
768519
1002
}
1002
{
1070
     5
1000
767633
1002
}
1002
{
1070
     3
1000
614484
1002
}
  0
ENDBLK
  5
153
330
150
100
AcDbEntity
  8
0
100
AcDbBlockEnd
  0
BLOCK
  5
157
330
155
100
AcDbEntity
  8
0
100
AcDbBlockBegin
  2
_ARDEX_ Lines - RA 030 Sealant-765039-_X_ - AS-09 OPEN CUT WALL PIPE PENETRATION
 70
     0
 10
0.0
 20
0.0
 30
0.0
  3
_ARDEX_ Lines - RA 030 Sealant-765039-_X_ - AS-09 OPEN CUT WALL PIPE PENETRATION
  1

  0
LINE
  5
156
330
155
100
AcDbEntity
  8
_ARDEX - WELDTEC TANKING_
 62
     8
420
  8421504
370
    50
100
AcDbLine
 10
3.957155984156642
 20
0.0
 30
0.0
 11
-0.0000000000027072
 21
0.0
 31
0.0
1001
REVIT
1002
{
1070
     1
1000
768520
1002
}
1002
{
1070
     5
1000
605262
1002
}
1002
{
1070
     3
1000
605361
1002
}
  0
ENDBLK
  5
158
330
155
100
AcDbEntity
  8
0
100
AcDbBlockEnd
  0
BLOCK
  5
15D
330
15B
100
AcDbEntity
  8
0
100
AcDbBlockBegin
  2
_ARDEX_ Lines - WPM 3000X DPM Membrane-768579-_X_ - AS-09 OPEN CUT WALL PIPE PENETRATION
 70
     0
 10
0.0
 20
0.0
 30
0.0
  3
_ARDEX_ Lines - WPM 3000X DPM Membrane-768579-_X_ - AS-09 OPEN CUT WALL PIPE PENETRATION
  1

  0
LINE
  5
15C
330
15B
100
AcDbEntity
  8
_ARDEX - WELDTEC TANKING_
 62
   133
420
  7589074
370
    90
100
AcDbLine
 10
24.99999999999727
 20
0.0
 30
0.0
 11
-0.0000000000027072
 21
0.0
 31
0.0
1001
REVIT
1002
{
1070
     1
1000
768531
1002
}
1002
{
1070
     5
1000
767633
1002
}
1002
{
1070
     3
1000
614484
1002
}
  0
ENDBLK
  5
15E
330
15B
100
AcDbEntity
  8
0
100
AcDbBlockEnd
  0
BLOCK
  5
162
330
160
100
AcDbEntity
  8
0
100
AcDbBlockBegin
  2
_ARDEX_ Lines - WPM 3000X DPM Membrane-768580-_X_ - AS-09 OPEN CUT WALL PIPE PENETRATION
 70
     0
 10
0.0
 20
0.0
 30
0.0
  3
_ARDEX_ Lines - WPM 3000X DPM Membrane-768580-_X_ - AS-09 OPEN CUT WALL PIPE PENETRATION
  1

  0
LINE
  5
161
330
160
100
AcDbEntity
  8
_ARDEX - WELDTEC TANKING_
 62
   133
420
  7589074
370
    90
100
AcDbLine
 10
4.999999999997268
 20
0.0
 30
0.0
 11
-0.0000000000027072
 21
0.0
 31
0.0
1001
REVIT
1002
{
1070
     1
1000
768532
1002
}
1002
{
1070
     5
1000
767633
1002
}
1002
{
1070
     3
1000
614484
1002
}
  0
ENDBLK
  5
163
330
160
100
AcDbEntity
  8
0
100
AcDbBlockEnd
  0
BLOCK
  5
167
330
165
100
AcDbEntity
  8
0
100
AcDbBlockBegin
  2
_ARDEX_ Lines - WPM 3000X DPM Membrane-768581-_X_ - AS-09 OPEN CUT WALL PIPE PENETRATION
 70
     0
 10
0.0
 20
0.0
 30
0.0
  3
_ARDEX_ Lines - WPM 3000X DPM Membrane-768581-_X_ - AS-09 OPEN CUT WALL PIPE PENETRATION
  1

  0
LINE
  5
166
330
165
100
AcDbEntity
  8
_ARDEX - WELDTEC TANKING_
 62
   133
420
  7589074
370
    90
100
AcDbLine
 10
48.84550768365309
 20
0.0
 30
0.0
 11
-0.0000000000027072
 21
0.0
 31
0.0
1001
REVIT
1002
{
1070
     1
1000
768533
1002
}
1002
{
1070
     5
1000
767633
1002
}
1002
{
1070
     3
1000
614484
1002
}
  0
ENDBLK
  5
168
330
165
100
AcDbEntity
  8
0
100
AcDbBlockEnd
  0
BLOCK
  5
16C
330
16A
100
AcDbEntity
  8
0
100
AcDbBlockBegin
  2
_ARDEX_ Lines - WPM 3000X DPM Membrane-768582-_X_ - AS-09 OPEN CUT WALL PIPE PENETRATION
 70
     0
 10
0.0
 20
0.0
 30
0.0
  3
_ARDEX_ Lines - WPM 3000X DPM Membrane-768582-_X_ - AS-09 OPEN CUT WALL PIPE PENETRATION
  1

  0
LINE
  5
16B
330
16A
100
AcDbEntity
  8
_ARDEX - WELDTEC TANKING_
 62
   133
420
  7589074
370
    90
100
AcDbLine
 10
8.178047228082526
 20
0.0
 30
0.0
 11
-0.0000000000027072
 21
0.0
 31
0.0
1001
REVIT
1002
{
1070
     1
1000
768534
1002
}
1002
{
1070
     5
1000
767633
1002
}
1002
{
1070
     3
1000
614484
1002
}
  0
ENDBLK
  5
16D
330
16A
100
AcDbEntity
  8
0
100
AcDbBlockEnd
  0
BLOCK
  5
171
330
16F
100
AcDbEntity
  8
0
100
AcDbBlockBegin
  2
_ARDEX_ Lines - RA 030 Sealant-765198-_X_ - AS-09 OPEN CUT WALL PIPE PENETRATION
 70
     0
 10
0.0
 20
0.0
 30
0.0
  3
_ARDEX_ Lines - RA 030 Sealant-765198-_X_ - AS-09 OPEN CUT WALL PIPE PENETRATION
  1

  0
LINE
  5
170
330
16F
100
AcDbEntity
  8
_ARDEX - WELDTEC TANKING_
 62
     8
420
  8421504
370
    50
100
AcDbLine
 10
3.957155984156642
 20
0.0
 30
0.0
 11
-0.0000000000027072
 21
0.0
 31
0.0
1001
REVIT
1002
{
1070
     1
1000
768535
1002
}
1002
{
1070
     5
1000
605262
1002
}
1002
{
1070
     3
1000
605361
1002
}
  0
ENDBLK
  5
172
330
16F
100
AcDbEntity
  8
0
100
AcDbBlockEnd
  0
BLOCK
  5
177
330
175
100
AcDbEntity
  8
0
100
AcDbBlockBegin
  2
_ARDEX_ Lines - WPM240 Primer-766617-_X_ - AS-09 OPEN CUT WALL PIPE PENETRATION
 70
     0
 10
0.0
 20
0.0
 30
0.0
  3
_ARDEX_ Lines - WPM240 Primer-766617-_X_ - AS-09 OPEN CUT WALL PIPE PENETRATION
  1

  0
LINE
  5
176
330
175
100
AcDbEntity
  8
_ARDEX - BUTYNOL_
370
    50
100
AcDbLine
 10
134.9999999999972
 20
0.0
 30
0.0
 11
-0.0000000000021657
 21
0.0
 31
0.0
1001
REVIT
1002
{
1070
     1
1000
768547
1002
}
1002
{
1070
     5
1000
708929
1002
}
1002
{
1070
     3
1000
335612
1002
}
  0
ENDBLK
  5
178
330
175
100
AcDbEntity
  8
0
100
AcDbBlockEnd
  0
BLOCK
  5
17C
330
17A
100
AcDbEntity
  8
0
100
AcDbBlockBegin
  2
_ARDEX_ Lines - WPM 3000X DPM Membrane-768611-_X_ - AS-09 OPEN CUT WALL PIPE PENETRATION
 70
     0
 10
0.0
 20
0.0
 30
0.0
  3
_ARDEX_ Lines - WPM 3000X DPM Membrane-768611-_X_ - AS-09 OPEN CUT WALL PIPE PENETRATION
  1

  0
LINE
  5
17B
330
17A
100
AcDbEntity
  8
_ARDEX - WELDTEC TANKING_
 62
   133
420
  7589074
370
    90
100
AcDbLine
 10
51.84550768365051
 20
0.0
 30
0.0
 11
-0.0000000000027072
 21
0.0
 31
0.0
1001
REVIT
1002
{
1070
     1
1000
768540
1002
}
1002
{
1070
     5
1000
767633
1002
}
1002
{
1070
     3
1000
614484
1002
}
  0
ENDBLK
  5
17D
330
17A
100
AcDbEntity
  8
0
100
AcDbBlockEnd
  0
BLOCK
  5
181
330
17F
100
AcDbEntity
  8
0
100
AcDbBlockBegin
  2
_ARDEX_ Lines - WPM 3000X DPM Membrane-768612-_X_ - AS-09 OPEN CUT WALL PIPE PENETRATION
 70
     0
 10
0.0
 20
0.0
 30
0.0
  3
_ARDEX_ Lines - WPM 3000X DPM Membrane-768612-_X_ - AS-09 OPEN CUT WALL PIPE PENETRATION
  1

  0
LINE
  5
180
330
17F
100
AcDbEntity
  8
_ARDEX - WELDTEC TANKING_
 62
   133
420
  7589074
370
    90
100
AcDbLine
 10
4.291096621439185
 20
0.0
 30
0.0
 11
-0.0000000000027072
 21
0.0
 31
0.0
1001
REVIT
1002
{
1070
     1
1000
768541
1002
}
1002
{
1070
     5
1000
767633
1002
}
1002
{
1070
     3
1000
614484
1002
}
  0
ENDBLK
  5
182
330
17F
100
AcDbEntity
  8
0
100
AcDbBlockEnd
  0
BLOCK
  5
186
330
184
100
AcDbEntity
  8
0
100
AcDbBlockBegin
  2
_ARDEX_ Lines - WPM 3000X DPM Membrane-768613-_X_ - AS-09 OPEN CUT WALL PIPE PENETRATION
 70
     0
 10
0.0
 20
0.0
 30
0.0
  3
_ARDEX_ Lines - WPM 3000X DPM Membrane-768613-_X_ - AS-09 OPEN CUT WALL PIPE PENETRATION
  1

  0
LINE
  5
185
330
184
100
AcDbEntity
  8
_ARDEX - WELDTEC TANKING_
 62
   133
420
  7589074
370
    90
100
AcDbLine
 10
9.999999999997292
 20
0.0
 30
0.0
 11
-0.0000000000027072
 21
0.0
 31
0.0
1001
REVIT
1002
{
1070
     1
1000
768542
1002
}
1002
{
1070
     5
1000
767633
1002
}
1002
{
1070
     3
1000
614484
1002
}
  0
ENDBLK
  5
187
330
184
100
AcDbEntity
  8
0
100
AcDbBlockEnd
  0
BLOCK
  5
18C
330
18A
100
AcDbEntity
  8
0
100
AcDbBlockBegin
  2
_ARDEX_ Lines - WPM 3000X DPM Membrane-768618-_X_ - AS-09 OPEN CUT WALL PIPE PENETRATION
 70
     0
 10
0.0
 20
0.0
 30
0.0
  3
_ARDEX_ Lines - WPM 3000X DPM Membrane-768618-_X_ - AS-09 OPEN CUT WALL PIPE PENETRATION
  1

  0
LINE
  5
18B
330
18A
100
AcDbEntity
  8
_ARDEX - WELDTEC TANKING_
 62
   133
420
  7589074
370
    90
100
AcDbLine
 10
4.291096621439159
 20
0.0
 30
0.0
 11
-0.0000000000027072
 21
0.0
 31
0.0
1001
REVIT
1002
{
1070
     1
1000
768544
1002
}
1002
{
1070
     5
1000
767633
1002
}
1002
{
1070
     3
1000
614484
1002
}
  0
ENDBLK
  5
18D
330
18A
100
AcDbEntity
  8
0
100
AcDbBlockEnd
  0
BLOCK
  5
191
330
18F
100
AcDbEntity
  8
0
100
AcDbBlockBegin
  2
_ARDEX_ Lines - WPM 3000X DPM Membrane-768619-_X_ - AS-09 OPEN CUT WALL PIPE PENETRATION
 70
     0
 10
0.0
 20
0.0
 30
0.0
  3
_ARDEX_ Lines - WPM 3000X DPM Membrane-768619-_X_ - AS-09 OPEN CUT WALL PIPE PENETRATION
  1

  0
LINE
  5
190
330
18F
100
AcDbEntity
  8
_ARDEX - WELDTEC TANKING_
 62
   133
420
  7589074
370
    90
100
AcDbLine
 10
9.999999999997267
 20
0.0
 30
0.0
 11
-0.0000000000027072
 21
0.0
 31
0.0
1001
REVIT
1002
{
1070
     1
1000
768545
1002
}
1002
{
1070
     5
1000
767633
1002
}
1002
{
1070
     3
1000
614484
1002
}
  0
ENDBLK
  5
192
330
18F
100
AcDbEntity
  8
0
100
AcDbBlockEnd
  0
BLOCK
  5
196
330
194
100
AcDbEntity
  8
0
100
AcDbBlockBegin
  2
_ARDEX_ Lines - WPM240 Primer-766992-_X_ - AS-09 OPEN CUT WALL PIPE PENETRATION
 70
     0
 10
0.0
 20
0.0
 30
0.0
  3
_ARDEX_ Lines - WPM240 Primer-766992-_X_ - AS-09 OPEN CUT WALL PIPE PENETRATION
  1

  0
LINE
  5
195
330
194
100
AcDbEntity
  8
_ARDEX - BUTYNOL_
370
    50
100
AcDbLine
 10
126.2160353065673
 20
0.0
 30
0.0
 11
-0.0000000000021657
 21
0.0
 31
0.0
1001
REVIT
1002
{
1070
     1
1000
768549
1002
}
1002
{
1070
     5
1000
708929
1002
}
1002
{
1070
     3
1000
335612
1002
}
  0
ENDBLK
  5
197
330
194
100
AcDbEntity
  8
0
100
AcDbBlockEnd
  0
BLOCK
  5
22E
330
1CD
100
AcDbEntity
  8
0
100
AcDbBlockBegin
  2
_ARDEX_ Landscape Title block Weldtec Tanking - ARDEX Logo_dwg-792302-OPEN CUT WALL PIPE PENETRATION
 70
     0
 10
0.0
 20
0.0
 30
0.0
  3
_ARDEX_ Landscape Title block Weldtec Tanking - ARDEX Logo_dwg-792302-OPEN CUT WALL PIPE PENETRATION
  1

  0
HATCH
  5
22D
330
1CD
100
AcDbEntity
  8
_ARDEX - WELDTEC TANKING_
100
AcDbHatch
 10
0.0
 20
0.0
 30
0.0
210
0.0
220
0.0
230
1.0
  2
SOLID
 70
     1
 71
     0
 91
       10
 92
        1
 93
        9
 72
     2
 10
124477.6924476593
 20
57717.91884407958
 40
95604.56878771125
 50
119.6582597659365
 51
135.2772449014122
 73
     1
 72
     2
 10
97569.92099523827
 20
80348.69210974658
 40
60628.55096713104
 50
132.5784142254349
 51
167.1951084870361
 73
     1
 72
     2
 10
84430.2544945385
 20
83335.13079417297
 40
47153.77261030999
 50
167.1951084870365
 51
230.8048915129539
 73
     1
 72
     1
 10
54630.80824474616
 20
46791.03038671248
 11
61031.0658797229
 21
58828.16430584775
 72
     2
 10
101776.0882193553
 20
92587.59123374682
 40
52913.66318785065
 50
140.3564374123571
 51
160.4021121620632
 73
     0
 72
     1
 10
51927.72315465329
 20
74839.45746330507
 11
64132.70340177394
 21
81604.78848708596
 72
     1
 10
64132.70340177394
 20
81604.78848708596
 11
64132.70340177394
 21
42419.71860701207
 72
     1
 10
64132.70340177394
 20
42419.71860701207
 11
77170.09142470383
 21
42419.71860701207
 72
     1
 10
77170.09142470383
 20
42419.71860701207
 11
77170.09142470405
 21
140797.5460612086
 97
        0
 92
        1
 93
       15
 72
     1
 10
99587.9892175987
 20
42419.71860701207
 11
99587.9892175987
 21
93150.58336594923
 72
     1
 10
99587.9892175987
 20
93150.58336594923
 11
104323.244612749
 21
94781.06255447839
 72
     2
 10
104981.1789583829
 20
91893.80516411493
 40
2961.272166041676
 50
257.1629146881614
 51
358.8370853117459
 73
     0
 72
     1
 10
107941.8411889871
 20
91953.90506134176
 11
107941.841188987
 21
42419.71860701207
 72
     1
 10
107941.841188987
 20
42419.71860701207
 11
121218.1847411904
 21
42419.7186070116
 72
     1
 10
121218.1847411904
 20
42419.7186070116
 11
121218.1847411906
 21
100325.0440555206
 72
     2
 10
115257.0429927786
 20
99877.23760612903
 40
5977.937902050918
 50
4.296042690475857
 51
69.70395730952316
 73
     1
 72
     2
 10
117146.8808736564
 20
109112.6270894137
 40
3633.253173235043
 50
272.8987004041956
 51
343.1012995957967
 73
     1
 72
     2
 10
107238.4034856646
 20
112122.807202992
 40
13988.8849002001
 50
343.1012995958001
 51
357.9328247994059
 73
     1
 72
     1
 10
121218.1847411906
 20
111618.2115245613
 11
121218.1847411905
 21
150938.3506316522
 72
     2
 10
117501.9377644241
 20
150938.3506316523
 40
3716.246976766372
 50
359.9999999999992
 51
450.0000000000004
 73
     1
 72
     1
 10
117501.9377644241
 20
154654.5976084187
 11
113759.3810577393
 21
154654.5976084182
 72
     2
 10
138821.7376305251
 20
43198.45589605923
 40
114239.1931098381
 50
102.672909136411
 51
117.4995807340575
 73
     1
 72
     1
 10
86072.69013612203
 20
144530.243755645
 11
86072.69013612182
 21
42419.71860701206
 72
     1
 10
86072.69013612182
 20
42419.71860701207
 11
99587.9892175987
 21
42419.71860701207
 97
        0
 92
        1
 93
        6
 72
     1
 10
99587.9892175987
 20
106990.7139084901
 11
106513.3266407933
 21
109375.2988146446
 72
     2
 10
105781.2900249622
 20
111413.010849934
 40
2165.213140935683
 50
289.7605409069777
 51
356.2394590929184
 73
     1
 72
     1
 10
107941.8411889871
 20
111271.001648431
 11
107941.8411889873
 21
136146.3715334163
 72
     2
 10
106971.8497563286
 20
136110.2439563157
 40
970.663989884431
 50
2.133009904533575
 51
112.1330099047764
 73
     1
 72
     1
 10
106606.1443298939
 20
137009.3813887111
 11
99587.9892175987
 21
133736.7619137283
 72
     1
 10
99587.9892175987
 20
133736.7619137283
 11
99587.9892175987
 21
106990.7139084901
 97
        0
 92
        1
 93
        3
 72
     1
 10
51087.04573740561
 20
89526.02661651836
 11
64132.70340177392
 21
96757.35274203249
 72
     1
 10
64132.70340177394
 20
96757.35274203249
 11
64132.70340177408
 21
113061.0160419619
 72
     2
 10
86373.34223488702
 20
85349.67085119694
 40
35532.58600196028
 50
128.7499156981673
 51
173.2500843018337
 73
     1
 97
        0
 92
        1
 93
        7
 72
     2
 10
159498.6066256473
 20
47171.09768479351
 40
4751.379077781432
 50
269.9999999999983
 51
360.0000000000004
 73
     1
 72
     1
 10
164249.9857034287
 20
47171.09768479354
 11
164249.9857034286
 21
148929.7251247162
 72
     2
 10
153104.0551340759
 20
145652.2312742628
 40
11617.81968342559
 50
16.38612894579416
 51
85.61387105420656
 73
     1
 72
     1
 10
153992.558609905
 20
157236.0258067134
 11
135476.7284421168
 21
157236.025806713
 72
     2
 10
135476.7284421172
 20
132203.633223968
 40
25032.39258274507
 50
90.00000000000087
 51
104.0000000000446
 73
     1
 72
     1
 10
129420.8445770855
 20
156492.4567654637
 11
129420.8445770854
 21
42419.7186070116
 72
     1
 10
129420.8445770854
 20
42419.7186070116
 11
159498.6066256472
 21
42419.71860701208
 97
        0
 92
        1
 93
        6
 72
     1
 10
142697.1881292888
 20
55489.83103482368
 11
149159.4554178724
 21
55489.831034824
 72
     2
 10
149159.4554178724
 20
57304.01776817661
 40
1814.186733352632
 50
270.0000000000007
 51
360.000000000001
 73
     1
 72
     1
 10
150973.642151225
 20
57304.01776817664
 11
150973.642151225
 21
141389.8290366245
 72
     2
 10
148487.8771841638
 20
141389.8290366245
 40
2485.764967061216
 50
0.0000000000003499
 51
90.00000000000033
 73
     1
 72
     1
 10
148487.8771841638
 20
143875.5940036857
 11
142697.1881292891
 21
143875.5940036856
 72
     1
 10
142697.1881292891
 20
143875.5940036856
 11
142697.1881292888
 21
55489.83103482369
 97
        0
 92
        1
 93
       12
 72
     1
 10
172919.8140256379
 20
42419.7186070116
 11
196992.984425274
 21
42419.7186070116
 72
     1
 10
196992.984425274
 20
42419.7186070116
 11
196992.984425274
 21
54546.71171763528
 72
     1
 10
196992.984425274
 20
54546.71171763528
 11
186196.1575778416
 21
54546.71171763528
 72
     1
 10
186196.1575778416
 20
54546.71171763528
 11
186196.1575778406
 21
93476.59036180981
 72
     2
 10
161707.488942156
 20
-25181.90177575424
 40
121159.12119155
 50
281.6609520622133
 51
293.4724250161588
 73
     0
 72
     1
 10
209966.0956403323
 20
85951.52941153274
 11
209966.0956403329
 21
99223.70245050954
 72
     2
 10
169092.3307322618
 20
11417.28922520742
 40
96853.6569327807
 50
65.03808668413701
 51
79.82853623748811
 73
     1
 72
     1
 10
186196.1575778414
 20
106748.763400787
 11
186196.1575778407
 21
134522.6524809155
 72
     2
 10
149649.8952597929
 20
7420.910997906968
 40
132251.585916514
 50
286.0418218054057
 51
291.9581781945935
 73
     0
 72
     1
 10
199102.6932269282
 20
130078.5758650272
 11
199102.6932269291
 21
145460.8194053911
 72
     2
 10
152033.610092587
 20
51290.32160925423
 40
105278.5887171737
 50
63.44281790000926
 51
78.55718209999064
 73
     1
 72
     1
 10
172919.8140256382
 20
154476.3077098232
 11
172919.8140256379
 21
42419.7186070116
 97
        0
 92
        1
 93
       15
 72
     1
 10
200843.9943688388
 20
42419.7186070116
 11
214718.2128208543
 21
42419.7186070116
 72
     1
 10
214718.2128208543
 20
42419.7186070116
 11
225840.6682517806
 21
68725.18316101737
 72
     1
 10
225840.6682517806
 20
68725.18316101737
 11
232246.5421246085
 21
48633.89078637936
 72
     2
 10
215878.5940257774
 20
72169.27135408337
 40
28667.47047495972
 50
304.8171215495268
 51
337.1828784504726
 73
     1
 72
     2
 10
238905.8055971146
 20
62481.42481598525
 40
3685.339995417663
 50
337.1828784504702
 51
369.7138375590516
 73
     1
 72
     1
 10
242538.3079454534
 20
63103.24277257604
 11
234416.0142442291
 21
86692.09649134927
 72
     2
 10
240052.5154725337
 20
88337.50986077392
 40
5871.757083953601
 50
163.7263636887576
 51
201.7263636887611
 73
     0
 72
     1
 10
234597.8742693718
 20
90511.0830934322
 11
240977.2733653132
 21
106520.3588046445
 72
     2
 10
236381.088340801
 20
108071.7744474019
 40
4850.959418109156
 50
341.3481872592003
 51
383.0214723187967
 73
     1
 72
     2
 10
203805.420895314
 20
91153.86535333568
 40
41545.00353168846
 50
26.92877030208263
 51
46.67979184903328
 73
     1
 72
     1
 10
232308.408978194
 20
121379.136051796
 11
228002.309532135
 21
109548.225057822
 72
     1
 10
228002.309532135
 20
109548.225057822
 11
221642.4787337427
 21
132015.9486933683
 72
     2
 10
168731.8755011547
 20
67203.36186232325
 40
83667.21787037084
 50
50.7730691213507
 51
64.40933290079502
 73
     1
 72
     1
 10
204870.9968443084
 20
142663.0680286801
 11
219652.9064905008
 21
89079.28160512716
 72
     1
 10
219652.9064905008
 20
89079.28160512716
 11
200843.9943688388
 21
42419.7186070116
 97
        0
 92
        1
 93
       11
 72
     1
 10
60760.25147079707
 20
33473.4471139251
 11
225743.0881782895
 21
33473.44711392544
 72
     2
 10
195728.5048987643
 20
89689.63940362025
 40
63727.03888457004
 50
298.0983598942144
 51
325.3528772494833
 73
     1
 72
     2
 10
207631.5266048101
 20
81463.83807677157
 40
49258.25409788611
 50
325.3528772494843
 51
362.6471227505195
 73
     1
 72
     2
 10
186230.686382898
 20
80474.39359199833
 40
70681.95505248924
 50
2.647122750518907
 51
35.35287724949006
 73
     1
 72
     2
 10
169807.2708636503
 20
68823.19701422783
 40
90818.46316615475
 50
35.35287724949011
 51
57.50026675947552
 73
     1
 72
     2
 10
145773.4884706048
 20
31097.32782319365
 40
135549.4803950897
 50
57.50026675947544
 51
91.06601590221627
 73
     1
 72
     2
 10
140729.851178483
 20
31097.32782319106
 40
135549.4803950918
 50
88.93398409778516
 51
122.4997332405255
 73
     1
 72
     2
 10
116696.06878544
 20
68823.19701422378
 40
90818.46316615935
 50
122.4997332405263
 51
144.6471227505104
 73
     1
 72
     2
 10
100272.6532661892
 20
80474.39359199847
 40
70681.95505248945
 50
144.6471227505111
 51
177.3528772494822
 73
     1
 72
     2
 10
78871.81304427679
 20
81463.83807677159
 40
49258.25409788603
 50
177.3528772494818
 51
214.6471227505157
 73
     1
 72
     2
 10
90774.83475031492
 20
89689.63940361074
 40
63727.03888455833
 50
214.6471227505147
 51
241.9016401057878
 73
     1
 97
        0
 92
        1
 93
       11
 72
     2
 10
90774.83475032144
 20
89689.63940361852
 40
76114.49352209958
 50
115.6676497836031
 51
145.3528772494841
 73
     0
 72
     2
 10
78871.81304427716
 20
81463.83807677169
 40
61645.7087354179
 50
145.3528772494848
 51
182.6471227505183
 73
     0
 72
     2
 10
100272.6532661902
 20
80474.39359199792
 40
83069.40969002218
 50
182.6471227505189
 51
215.3528772494895
 73
     0
 72
     2
 10
116696.0687854374
 20
68823.19701422652
 40
103205.9178036874
 50
215.3528772494901
 51
237.500266759475
 73
     0
 72
     2
 10
140729.8511784818
 20
31097.32782319603
 40
147936.9350326188
 50
237.5002667594748
 51
270.9767443388683
 73
     0
 72
     2
 10
145773.488470605
 20
31097.32782319397
 40
147936.9350326207
 50
269.0232556611323
 51
302.4997332405255
 73
     0
 72
     2
 10
169807.2708636478
 20
68823.19701422454
 40
103205.9178036901
 50
302.4997332405259
 51
324.6471227505102
 73
     0
 72
     2
 10
186230.6863828967
 20
80474.39359199808
 40
83069.40969002223
 50
324.6471227505111
 51
357.3528772494815
 73
     0
 72
     2
 10
207631.5266048085
 20
81463.8380767721
 40
61645.70873541929
 50
357.3528772494821
 51
394.6471227505164
 73
     0
 72
     2
 10
195728.5048987675
 20
89689.63940361675
 40
76114.49352209723
 50
34.64712275051661
 51
64.33235021639949
 73
     0
 72
     1
 10
228697.516901105
 20
21085.99247639351
 11
57805.82274798077
 21
21085.99247639414
 97
        0
 75
     0
 76
     1
 98
        1
 10
0.0
 20
0.0
450
        0
451
        0
460
0.0
461
0.0
452
        0
462
0.0
453
        0
470

1001
REVIT
1002
{
1070
     1
1000
769628
1002
}
1002
{
1070
     5
1000
677308
1002
}
  0
ENDBLK
  5
22F
330
1CD
100
AcDbEntity
  8
0
100
AcDbBlockEnd
  0
BLOCK
  5
25B
330
230
100
AcDbEntity
  8
0
100
AcDbBlockBegin
  2
_ARDEX_ Landscape Title block Weldtec Tanking - WPM 3000X-677308-OPEN CUT WALL PIPE PENETRATION
 70
     0
 10
0.0
 20
0.0
 30
0.0
  3
_ARDEX_ Landscape Title block Weldtec Tanking - WPM 3000X-677308-OPEN CUT WALL PIPE PENETRATION
  1

  0
LINE
  5
231
330
230
100
AcDbEntity
  8
_ARDEX - WELDTEC TANKING_
100
AcDbLine
 10
285.227182665069
 20
0.1047184170710639
 30
0.0
 11
285.227182665069
 21
20.10471841707107
 31
0.0
1001
REVIT
1002
{
1070
     1
1000
769628
1002
}
1002
{
1070
     5
1000
677308
1002
}
  0
LINE
  5
232
330
230
100
AcDbEntity
  8
_ARDEX - WELDTEC TANKING_
100
AcDbLine
 10
5.3206767357453
 20
0.1047184170705877
 30
0.0
 11
5.3206767357453
 21
20.1047184170714
 31
0.0
1001
REVIT
1002
{
1070
     1
1000
769628
1002
}
1002
{
1070
     5
1000
677308
1002
}
  0
LINE
  5
233
330
230
100
AcDbEntity
  8
_ARDEX - WELDTEC TANKING_
100
AcDbLine
 10
208.5398289799351
 20
10.10471841707111
 30
0.0
 11
255.7980057156809
 21
10.10471841707111
 31
0.0
1001
REVIT
1002
{
1070
     1
1000
769628
1002
}
1002
{
1070
     5
1000
677308
1002
}
  0
LINE
  5
234
330
230
100
AcDbEntity
  8
_ARDEX - WELDTEC TANKING_
100
AcDbLine
 10
285.3206767356986
 20
0.104718417071116
 30
0.0
 11
285.3206767356986
 21
20.10471841707112
 31
0.0
1001
REVIT
1002
{
1070
     1
1000
769628
1002
}
1002
{
1070
     5
1000
677308
1002
}
  0
LINE
  5
235
330
230
100
AcDbEntity
  8
_ARDEX - WELDTEC TANKING_
100
AcDbLine
 10
93.03982897993519
 20
0.1047184170707532
 30
0.0
 11
93.03982897993519
 21
20.10471841707112
 31
0.0
1001
REVIT
1002
{
1070
     1
1000
769628
1002
}
1002
{
1070
     5
1000
677308
1002
}
  0
LINE
  5
236
330
230
100
AcDbEntity
  8
_ARDEX - WELDTEC TANKING_
100
AcDbLine
 10
285.3206767356986
 20
0.1047184170711139
 30
0.0
 11
5.320676735745351
 21
0.1047184170711139
 31
0.0
1001
REVIT
1002
{
1070
     1
1000
769628
1002
}
1002
{
1070
     5
1000
677308
1002
}
  0
LINE
  5
237
330
230
100
AcDbEntity
  8
_ARDEX - WELDTEC TANKING_
100
AcDbLine
 10
5.3206767357453
 20
20.10471841707112
 30
0.0
 11
285.3206767356986
 21
20.10471841707112
 31
0.0
1001
REVIT
1002
{
1070
     1
1000
769628
1002
}
1002
{
1070
     5
1000
677308
1002
}
  0
LINE
  5
238
330
230
100
AcDbEntity
  8
_ARDEX - WELDTEC TANKING_
100
AcDbLine
 10
208.5398289799351
 20
20.10471841707112
 30
0.0
 11
208.5398289799351
 21
0.1047184170711139
 31
0.0
1001
REVIT
1002
{
1070
     1
1000
769628
1002
}
1002
{
1070
     5
1000
677308
1002
}
  0
LINE
  5
239
330
230
100
AcDbEntity
  8
_ARDEX - WELDTEC TANKING_
100
AcDbLine
 10
255.7980057156809
 20
0.1047184170711139
 30
0.0
 11
255.7980057156809
 21
20.10471841707112
 31
0.0
1001
REVIT
1002
{
1070
     1
1000
769628
1002
}
1002
{
1070
     5
1000
677308
1002
}
  0
ARC
  5
23A
330
230
100
AcDbEntity
  8
_ARDEX - WELDTEC TANKING_
100
AcDbCircle
 10
264.7033458719065
 20
8.615450092703635
 30
0.0
 40
3.599904939316393
100
AcDbArc
 50
128.7499156981656
 51
173.2500843018355
1001
REVIT
1002
{
1070
     1
1000
769628
1002
}
1002
{
1070
     5
1000
677308
1002
}
  0
LINE
  5
23B
330
230
100
AcDbEntity
  8
_ARDEX - WELDTEC TANKING_
100
AcDbLine
 10
261.1283932060786
 20
9.038568290379673
 30
0.0
 11
262.4500850035741
 21
9.771194016962288
 31
0.0
1001
REVIT
1002
{
1070
     1
1000
769628
1002
}
1002
{
1070
     5
1000
677308
1002
}
  0
LINE
  5
23C
330
230
100
AcDbEntity
  8
_ARDEX - WELDTEC TANKING_
100
AcDbLine
 10
262.4500850035741
 20
9.771194016962288
 30
0.0
 11
262.4500850035741
 21
11.42296341081208
 31
0.0
1001
REVIT
1002
{
1070
     1
1000
769628
1002
}
1002
{
1070
     5
1000
677308
1002
}
  0
LINE
  5
23D
330
230
100
AcDbEntity
  8
_ARDEX - WELDTEC TANKING_
100
AcDbLine
 10
266.0421584464195
 20
10.80796424829054
 30
0.0
 11
266.88851038299
 21
11.09938659061298
 31
0.0
1001
REVIT
1002
{
1070
     1
1000
769628
1002
}
1002
{
1070
     5
1000
677308
1002
}
  0
LINE
  5
23E
330
230
100
AcDbEntity
  8
_ARDEX - WELDTEC TANKING_
100
AcDbLine
 10
266.88851038299
 20
11.09938659061298
 30
0.0
 11
266.88851038299
 21
13.91234101803232
 31
0.0
1001
REVIT
1002
{
1070
     1
1000
769628
1002
}
1002
{
1070
     5
1000
677308
1002
}
  0
LINE
  5
23F
330
230
100
AcDbEntity
  8
_ARDEX - WELDTEC TANKING_
100
AcDbLine
 10
266.88851038299
 20
13.91234101803232
 30
0.0
 11
266.0421584464195
 21
13.51768062851515
 31
0.0
1001
REVIT
1002
{
1070
     1
1000
769628
1002
}
1002
{
1070
     5
1000
677308
1002
}
  0
LINE
  5
240
330
230
100
AcDbEntity
  8
_ARDEX - WELDTEC TANKING_
100
AcDbLine
 10
266.0421584464195
 20
13.51768062851515
 30
0.0
 11
266.0421584464195
 21
10.80796424829054
 31
0.0
1001
REVIT
1002
{
1070
     1
1000
769628
1002
}
1002
{
1070
     5
1000
677308
1002
}
  0
LINE
  5
241
330
230
100
AcDbEntity
  8
_ARDEX - WELDTEC TANKING_
100
AcDbLine
 10
270.4096710750699
 20
5.590266819067662
 30
0.0
 11
271.2473149067903
 21
5.590266819067662
 31
0.0
1001
REVIT
1002
{
1070
     1
1000
769628
1002
}
1002
{
1070
     5
1000
677308
1002
}
  0
LINE
  5
242
330
230
100
AcDbEntity
  8
_ARDEX - WELDTEC TANKING_
100
AcDbLine
 10
271.2473149067903
 20
5.590266819067662
 30
0.0
 11
271.2473149067903
 21
14.54487385665576
 31
0.0
1001
REVIT
1002
{
1070
     1
1000
769628
1002
}
1002
{
1070
     5
1000
677308
1002
}
  0
LINE
  5
243
330
230
100
AcDbEntity
  8
_ARDEX - WELDTEC TANKING_
100
AcDbLine
 10
271.2473149067903
 20
14.54487385665576
 30
0.0
 11
270.4096710750699
 21
14.54487385665576
 31
0.0
1001
REVIT
1002
{
1070
     1
1000
769628
1002
}
1002
{
1070
     5
1000
677308
1002
}
  0
LINE
  5
244
330
230
100
AcDbEntity
  8
_ARDEX - WELDTEC TANKING_
100
AcDbLine
 10
270.4096710750699
 20
14.54487385665576
 30
0.0
 11
270.4096710750699
 21
5.590266819067662
 31
0.0
1001
REVIT
1002
{
1070
     1
1000
769628
1002
}
1002
{
1070
     5
1000
677308
1002
}
  0
MTEXT
  5
246
330
230
100
AcDbEntity
  8
_ARDEX - WELDTEC TANKING_
100
AcDbMText
 10
210.3053465833535
 20
13.82166287222625
 30
0.0
 40
1.5
 41
9.95695875
 46
0.0
 71
     1
 72
     1
  1
DWG NO.
  7
Swis721 Lt BT_1
 73
     2
 44
1.0
1001
REVIT
1002
{
1070
     1
1000
769628
1002
}
1002
{
1070
     5
1000
677308
1002
}
  0
MTEXT
  5
247
330
230
100
AcDbEntity
  8
_ARDEX - WELDTEC TANKING_
100
AcDbMText
 10
210.3053465833535
 20
3.821662872225974
 30
0.0
 40
1.5
 41
6.998731874999998
 46
0.0
 71
     1
 72
     1
  1
SCALE
  7
Swis721 Lt BT_1
 73
     2
 44
1.0
1001
REVIT
1002
{
1070
     1
1000
769628
1002
}
1002
{
1070
     5
1000
677308
1002
}
  0
MTEXT
  5
249
330
230
100
AcDbEntity
  8
_ARDEX - WELDTEC TANKING_
100
AcDbMText
 10
227.0439951580743
 20
4.127661816395806
 30
0.0
 40
2.1
 41
8.730376874999999
 46
0.0
 71
     1
 72
     1
  1
@  A4
  7
Swis721 Lt BT_2
 73
     2
 44
1.0
1001
REVIT
1002
{
1070
     1
1000
769628
1002
}
1002
{
1070
     5
1000
677308
1002
}
  0
MTEXT
  5
24A
330
230
100
AcDbEntity
  8
_ARDEX - WELDTEC TANKING_
100
AcDbMText
 10
210.3053465833535
 20
7.734351438880739
 30
0.0
 40
1.5
 41
5.62784625
 46
0.0
 71
     1
 72
     1
  1
DATE
  7
Swis721 Lt BT_1
 73
     2
 44
1.0
1001
REVIT
1002
{
1070
     1
1000
769628
1002
}
1002
{
1070
     5
1000
677308
1002
}
  0
MTEXT
  5
24C
330
230
100
AcDbEntity
  8
_ARDEX - WELDTEC TANKING_
100
AcDbMText
 10
6.949872989435805
 20
8.938253401590928
 30
0.0
 40
0.7000000000000001
 41
6.6379725
 46
0.0
 71
     1
 72
     1
  1
Disclaimer: 
  7
Swis721 Lt BT_B
 73
     2
 44
1.0
1001
REVIT
1002
{
1070
     1
1000
769628
1002
}
1002
{
1070
     5
1000
677308
1002
}
  0
MTEXT
  5
24E
330
230
100
AcDbEntity
  8
_ARDEX - WELDTEC TANKING_
100
AcDbMText
 10
12.4267479894358
 20
8.938253401590928
 30
0.0
 40
0.7000000000000001
 41
17.821513125
 46
0.0
 71
     1
 72
     1
  1
Ardex makes every reasonable effort
  7
Swis721 Lt BT_3
 73
     2
 44
1.0
1001
REVIT
1002
{
1070
     1
1000
769628
1002
}
1002
{
1070
     5
1000
677308
1002
}
  0
MTEXT
  5
24F
330
230
100
AcDbEntity
  8
_ARDEX - WELDTEC TANKING_
100
AcDbMText
 10
27.13096673943581
 20
8.938253401590928
 30
0.0
 40
0.7000000000000001
 41
0.3607593750000011
 46
0.0
 71
     1
 72
     1
  1
\fSwis721 Lt BT|b1|i0|c0|p34|;\W.9; 
  7
Swis721 Lt BT_B
 73
     2
 44
1.0
1001
REVIT
1002
{
1070
     1
1000
769628
1002
}
1002
{
1070
     5
1000
677308
1002
}
  0
MTEXT
  5
250
330
230
100
AcDbEntity
  8
_ARDEX - WELDTEC TANKING_
100
AcDbMText
 10
27.42862298943581
 20
8.938253401590928
 30
0.0
 40
0.7000000000000001
 41
13.27594499999999
 46
0.0
 71
     1
 72
     1
  1
to ensure that the technical
  7
Swis721 Lt BT_3
 73
     2
 44
1.0
1001
REVIT
1002
{
1070
     1
1000
769628
1002
}
1002
{
1070
     5
1000
677308
1002
}
  0
MTEXT
  5
251
330
230
100
AcDbEntity
  8
_ARDEX - WELDTEC TANKING_
100
AcDbMText
 10
38.3823729894358
 20
8.938253401590928
 30
0.0
 40
0.7000000000000001
 41
0.3607593750000057
 46
0.0
 71
     1
 72
     1
  1
\fSwis721 Lt BT|b1|i0|c0|p34|;\W.9; 
  7
Swis721 Lt BT_B
 73
     2
 44
1.0
1001
REVIT
1002
{
1070
     1
1000
769628
1002
}
1002
{
1070
     5
1000
677308
1002
}
  0
MTEXT
  5
252
330
230
100
AcDbEntity
  8
_ARDEX - WELDTEC TANKING_
100
AcDbMText
 10
38.6800292394358
 20
8.938253401590928
 30
0.0
 40
0.7000000000000001
 41
59.95820812499999
 46
0.0
 71
     1
 72
     1
  1
details, recommendations and other information contained in this drawing are accurate and represent our knowledge and 
  7
Swis721 Lt BT_3
 73
     2
 44
1.0
1001
REVIT
1002
{
1070
     1
1000
769628
1002
}
1002
{
1070
     5
1000
677308
1002
}
  0
MTEXT
  5
253
330
230
100
AcDbEntity
  8
_ARDEX - WELDTEC TANKING_
100
AcDbMText
 10
6.949872989435805
 20
7.681482568257595
 30
0.0
 40
0.7000000000000001
 41
98.920220625
 46
0.0
 71
     1
 72
     1
  1
experience at the time of design and publication. Ardex reserves the right to change the information without prior notice.  Ardex provides the information in good faith with no representations or warranties 
  7
Swis721 Lt BT_3
 73
     2
 44
1.0
1001
REVIT
1002
{
1070
     1
1000
769628
1002
}
1002
{
1070
     5
1000
677308
1002
}
  0
MTEXT
  5
254
330
230
100
AcDbEntity
  8
_ARDEX - WELDTEC TANKING_
100
AcDbMText
 10
6.949872989435805
 20
6.424711734924262
 30
0.0
 40
0.7000000000000001
 41
100.1468025
 46
0.0
 71
     1
 72
     1
  1
(whether implied or otherwise), and will not be liable for any losses or damages (whether direct, indirect or consequential) whatsoever, whether in contract, negligence  or any other action, arising out of or in 
  7
Swis721 Lt BT_3
 73
     2
 44
1.0
1001
REVIT
1002
{
1070
     1
1000
769628
1002
}
1002
{
1070
     5
1000
677308
1002
}
  0
MTEXT
  5
255
330
230
100
AcDbEntity
  8
_ARDEX - WELDTEC TANKING_
100
AcDbMText
 10
6.949872989435805
 20
5.167940901590927
 30
0.0
 40
0.7000000000000001
 41
29.221509375
 46
0.0
 71
     1
 72
     1
  1
connection with the use, or inability to use, the information.  
  7
Swis721 Lt BT_3
 73
     2
 44
1.0
1001
REVIT
1002
{
1070
     1
1000
769628
1002
}
1002
{
1070
     5
1000
677308
1002
}
  0
MTEXT
  5
256
330
230
100
AcDbEntity
  8
_ARDEX - WELDTEC TANKING_
100
AcDbMText
 10
6.949872989435805
 20
3.911170068257595
 30
0.0
 40
0.7000000000000001
 41
100.1468025
 46
0.0
 71
     1
 72
     1
  1
It is your responsibility to ensure that our products are used only for the purposes for which they are intended and are used in accordance with any applicable specifications, guidelines, standards, codes of 
  7
Swis721 Lt BT_3
 73
     2
 44
1.0
1001
REVIT
1002
{
1070
     1
1000
769628
1002
}
1002
{
1070
     5
1000
677308
1002
}
  0
MTEXT
  5
257
330
230
100
AcDbEntity
  8
_ARDEX - WELDTEC TANKING_
100
AcDbMText
 10
6.949872989435805
 20
2.654399234924261
 30
0.0
 40
0.7000000000000001
 41
79.94427750000001
 46
0.0
 71
     1
 72
     1
  1
practice, regulations and laws. The supply of our products and services are also subject to certain terms, warranties and exclusions which are available on request.
  7
Swis721 Lt BT_3
 73
     2
 44
1.0
1001
REVIT
1002
{
1070
     1
1000
769628
1002
}
1002
{
1070
     5
1000
677308
1002
}
  0
MTEXT
  5
259
330
230
100
AcDbEntity
  8
_ARDEX - WELDTEC TANKING_
 62
   133
420
  7589074
100
AcDbMText
 10
28.19746716553648
 20
16.95786991695462
 30
0.0
 40
5.0
 41
49.64048999999999
 46
0.0
 71
     1
 72
     1
  1
WPM 3000X
  7
Arial Black
 73
     2
 44
1.0
1001
REVIT
1002
{
1070
     1
1000
769628
1002
}
1002
{
1070
     5
1000
677308
1002
}
  0
INSERT
  5
25A
330
230
100
AcDbEntity
  8
0
100
AcDbBlockReference
  2
_ARDEX_ Landscape Title block Weldtec Tanking - ARDEX Logo_dwg-792302-OPEN CUT WALL PIPE PENETRATION
 10
255.9526227660936
 20
-0.0315620231414546
 30
0.0
 41
0.0001013127763658
 42
0.0001013127763658
 43
0.0001013127763658
  0
ENDBLK
  5
25C
330
230
100
AcDbEntity
  8
0
100
AcDbBlockEnd
  0
ENDSEC
  0
SECTION
  2
ENTITIES
  0
INSERT
  5
C8
330
70
100
AcDbEntity
  8
_ARDEX - WELDTEC TANKING_
100
AcDbBlockReference
  2
_ARDEX_ Fillet - _ARDEX_ Fillet 12mm-766149-_X_ - AS-09 OPEN CUT WALL PIPE PENETRATION
 10
3757.804047244291
 20
2438.635327870068
 30
0.0
 50
90.00000000000026
1001
REVIT
1002
{
1070
     1
1000
768538
1002
}
1002
{
1070
     5
1000
766022
1002
}
1002
{
1070
     2
1000
-2002000
1002
}
  0
INSERT
  5
D2
330
70
100
AcDbEntity
  8
_ARDEX - WELDTEC TANKING_
100
AcDbBlockReference
  2
_ARDEX_ Fillet - _ARDEX_ Fillet 12mm-766022-_X_ - AS-09 OPEN CUT WALL PIPE PENETRATION
 10
3757.804047244291
 20
2488.635327870068
 30
0.0
 50
269.9999999999998
1001
REVIT
1002
{
1070
     1
1000
768512
1002
}
1002
{
1070
     5
1000
766022
1002
}
1002
{
1070
     2
1000
-2002000
1002
}
  0
INSERT
  5
F0
330
70
100
AcDbEntity
  8
_ARDEX - WELDTEC TANKING_
100
AcDbBlockReference
  2
_ARDEX_ Lining - Various - Concrete Wall 150-765586-_X_ - AS-09 OPEN CUT WALL PIPE PENETRATION
 10
3607.804047244292
 20
2635.419292563499
 30
0.0
 50
269.9999999999997
1001
REVIT
1002
{
1070
     1
1000
768499
1002
}
1002
{
1070
     5
1000
753775
1002
}
1002
{
1070
     2
1000
-2002000
1002
}
  0
INSERT
  5
F5
330
70
100
AcDbEntity
  8
_ARDEX - WELDTEC TANKING_
 62
   133
420
  7589074
100
AcDbBlockReference
  2
_ARDEX_ Lines - WPM 3000X DPM Membrane-768594-_X_ - AS-09 OPEN CUT WALL PIPE PENETRATION
 10
3762.779324000959
 20
2502.486940737342
 30
0.0
 50
90.00000000000005
1001
REVIT
1002
{
1070
     1
1000
768506
1002
}
1002
{
1070
     5
1000
767633
1002
}
1002
{
1070
     2
1000
-2002000
1002
}
  0
INSERT
  5
FD
330
70
100
AcDbEntity
  8
_ARDEX - WELDTEC TANKING_
100
AcDbBlockReference
  2
_ARDEX_ Lining - Various - Pipe-763482-_X_ - AS-09 OPEN CUT WALL PIPE PENETRATION
 10
3579.350790015197
 20
2438.635327870068
 30
0.0
1001
REVIT
1002
{
1070
     1
1000
768498
1002
}
1002
{
1070
     5
1000
517035
1002
}
1002
{
1070
     2
1000
-2002000
1002
}
  0
ARC
  5
FE
330
70
100
AcDbEntity
  8
_ARDEX - BUTYNOL_
100
AcDbCircle
 10
3586.584149091527
 20
2451.135327870067
 30
0.0
 40
14.44200413817673
100
AcDbArc
 50
120.0566241669291
 51
239.9433758330705
1001
REVIT
1002
{
1070
     1
1000
768500
1002
}
1002
{
1070
     2
1000
-2000051
1002
}
1002
{
1070
     3
1000
330672
1002
}
  0
ARC
  5
FF
330
70
100
AcDbEntity
  8
_ARDEX - BUTYNOL_
100
AcDbCircle
 10
3572.117430938869
 20
2476.135327870067
 30
0.0
 40
14.44200413817656
100
AcDbArc
 50
300.0566241669304
 51
59.9433758330686
1001
REVIT
1002
{
1070
     1
1000
768501
1002
}
1002
{
1070
     2
1000
-2000051
1002
}
1002
{
1070
     3
1000
330672
1002
}
  0
ARC
  5
100
330
70
100
AcDbEntity
  8
_ARDEX - BUTYNOL_
100
AcDbCircle
 10
3586.584149091527
 20
2476.135327870067
 30
0.0
 40
14.44200413817689
100
AcDbArc
 50
120.0566241669267
 51
239.9433758330696
1001
REVIT
1002
{
1070
     1
1000
768502
1002
}
1002
{
1070
     2
1000
-2000051
1002
}
1002
{
1070
     3
1000
330672
1002
}
  0
ARC
  5
101
330
70
100
AcDbEntity
  8
_ARDEX - BUTYNOL_
100
AcDbCircle
 10
3872.650712786212
 20
2451.135327870067
 30
0.0
 40
14.44200413817633
100
AcDbArc
 50
300.0566241669295
 51
59.94337583307015
1001
REVIT
1002
{
1070
     1
1000
768503
1002
}
1002
{
1070
     2
1000
-2000051
1002
}
1002
{
1070
     3
1000
330672
1002
}
  0
ARC
  5
102
330
70
100
AcDbEntity
  8
_ARDEX - BUTYNOL_
100
AcDbCircle
 10
3887.117430938871
 20
2476.135327870067
 30
0.0
 40
14.44200413817673
100
AcDbArc
 50
120.0566241669291
 51
239.9433758330696
1001
REVIT
1002
{
1070
     1
1000
768504
1002
}
1002
{
1070
     2
1000
-2000051
1002
}
1002
{
1070
     3
1000
330672
1002
}
  0
ARC
  5
103
330
70
100
AcDbEntity
  8
_ARDEX - BUTYNOL_
100
AcDbCircle
 10
3872.650712786212
 20
2476.135327870067
 30
0.0
 40
14.44200413817633
100
AcDbArc
 50
300.0566241669304
 51
59.94337583307015
1001
REVIT
1002
{
1070
     1
1000
768505
1002
}
1002
{
1070
     2
1000
-2000051
1002
}
1002
{
1070
     3
1000
330672
1002
}
  0
INSERT
  5
108
330
70
100
AcDbEntity
  8
_ARDEX - WELDTEC TANKING_
 62
     8
420
  8421504
100
AcDbBlockReference
  2
_ARDEX_ Lines - RA 030 Sealant-764984-_X_ - AS-09 OPEN CUT WALL PIPE PENETRATION
 10
3850.112388257551
 20
2493.94594464203
 30
0.0
 50
180.0
1001
REVIT
1002
{
1070
     1
1000
768507
1002
}
1002
{
1070
     5
1000
605262
1002
}
1002
{
1070
     2
1000
-2002000
1002
}
  0
INSERT
  5
115
330
70
100
AcDbEntity
  8
_ARDEX - WELDTEC TANKING_
100
AcDbBlockReference
  2
_ARDEX_ Waterstop - _ARDEX_ Water Stop-763835-_X_ - AS-09 OPEN CUT WALL PIPE PENETRATION
 10
3687.446901499324
 20
2488.635327870068
 30
0.0
1001
REVIT
1002
{
1070
     1
1000
768508
1002
}
1002
{
1070
     5
1000
707735
1002
}
1002
{
1070
     2
1000
-2002000
1002
}
  0
INSERT
  5
116
330
70
100
AcDbEntity
  8
_ARDEX - WELDTEC TANKING_
100
AcDbBlockReference
  2
_ARDEX_ Waterstop - _ARDEX_ Water Stop-763835-_X_ - AS-09 OPEN CUT WALL PIPE PENETRATION
 10
3687.446901499324
 20
2431.77203604498
 30
0.0
1001
REVIT
1002
{
1070
     1
1000
768509
1002
}
1002
{
1070
     5
1000
707735
1002
}
1002
{
1070
     2
1000
-2002000
1002
}
  0
LINE
  5
117
330
70
100
AcDbEntity
  8
_ARDEX - BUTYNOL_
  6
Dash
 62
     8
420
  8421504
370
     9
100
AcDbLine
 10
3677.779256416268
 20
2488.635327870068
 30
0.0
 11
3677.779256416268
 21
2438.635327870068
 31
0.0
1001
REVIT
1002
{
1070
     1
1000
768510
1002
}
1002
{
1070
     2
1000
-2000051
1002
}
1002
{
1070
     3
1000
330683
1002
}
  0
LINE
  5
118
330
70
100
AcDbEntity
  8
_ARDEX - BUTYNOL_
  6
Dash
 62
     8
420
  8421504
370
     9
100
AcDbLine
 10
3687.446901499324
 20
2488.635327870068
 30
0.0
 11
3687.446901499324
 21
2438.635327870068
 31
0.0
1001
REVIT
1002
{
1070
     1
1000
768511
1002
}
1002
{
1070
     2
1000
-2000051
1002
}
1002
{
1070
     3
1000
330683
1002
}
  0
INSERT
  5
11D
330
70
100
AcDbEntity
  8
_ARDEX - WELDTEC TANKING_
 62
   133
420
  7589074
100
AcDbBlockReference
  2
_ARDEX_ Lines - WPM 3000X DPM Underflashing Membrane-768571-_X_ - AS-09 OPEN CUT WALL PIPE PENETRATION
 10
3766.160425288789
 20
2548.102541292678
 30
0.0
 50
270.0
1001
REVIT
1002
{
1070
     1
1000
768513
1002
}
1002
{
1070
     5
1000
767708
1002
}
1002
{
1070
     2
1000
-2002000
1002
}
  0
INSERT
  5
122
330
70
100
AcDbEntity
  8
_ARDEX - WELDTEC TANKING_
 62
   133
420
  7589074
100
AcDbBlockReference
  2
_ARDEX_ Lines - WPM 3000X DPM Underflashing Membrane-768572-_X_ - AS-09 OPEN CUT WALL PIPE PENETRATION
 10
3766.160425288789
 20
2496.521590512688
 30
0.0
 50
314.9999999999993
1001
REVIT
1002
{
1070
     1
1000
768514
1002
}
1002
{
1070
     5
1000
767708
1002
}
1002
{
1070
     2
1000
-2002000
1002
}
  0
INSERT
  5
127
330
70
100
AcDbEntity
  8
_ARDEX - WELDTEC TANKING_
 62
   133
420
  7589074
100
AcDbBlockReference
  2
_ARDEX_ Lines - WPM 3000X DPM Underflashing Membrane-768573-_X_ - AS-09 OPEN CUT WALL PIPE PENETRATION
 10
3770.792677944397
 20
2491.889337857082
 30
0.0
1001
REVIT
1002
{
1070
     1
1000
768515
1002
}
1002
{
1070
     5
1000
767708
1002
}
1002
{
1070
     2
1000
-2002000
1002
}
  0
INSERT
  5
12C
330
70
100
AcDbEntity
  8
_ARDEX - WELDTEC TANKING_
 62
   133
420
  7589074
100
AcDbBlockReference
  2
_ARDEX_ Lines - WPM 3000X DPM Membrane-768587-_X_ - AS-09 OPEN CUT WALL PIPE PENETRATION
 10
3762.779324000959
 20
2427.367963939618
 30
0.0
 50
269.9999999999995
1001
REVIT
1002
{
1070
     1
1000
768526
1002
}
1002
{
1070
     5
1000
767633
1002
}
1002
{
1070
     2
1000
-2002000
1002
}
  0
INSERT
  5
131
330
70
100
AcDbEntity
  8
_ARDEX - WELDTEC TANKING_
 62
     8
420
  8421504
100
AcDbBlockReference
  2
_ARDEX_ Lines - RA 030 Sealant-765191-_X_ - AS-09 OPEN CUT WALL PIPE PENETRATION
 10
3850.11238825755
 20
2433.324711098104
 30
0.0
 50
180.0
1001
REVIT
1002
{
1070
     1
1000
768527
1002
}
1002
{
1070
     5
1000
605262
1002
}
1002
{
1070
     2
1000
-2002000
1002
}
  0
INSERT
  5
136
330
70
100
AcDbEntity
  8
_ARDEX - WELDTEC TANKING_
 62
   133
420
  7589074
100
AcDbBlockReference
  2
_ARDEX_ Lines - WPM 3000X DPM Membrane-768578-_X_ - AS-09 OPEN CUT WALL PIPE PENETRATION
 10
3766.160425288789
 20
2379.168114447457
 30
0.0
 50
89.99999999999955
1001
REVIT
1002
{
1070
     1
1000
768528
1002
}
1002
{
1070
     5
1000
767633
1002
}
1002
{
1070
     2
1000
-2002000
1002
}
  0
INSERT
  5
13B
330
70
100
AcDbEntity
  8
_ARDEX - WELDTEC TANKING_
 62
   133
420
  7589074
100
AcDbBlockReference
  2
_ARDEX_ Lines - WPM 3000X DPM Membrane-768588-_X_ - AS-09 OPEN CUT WALL PIPE PENETRATION
 10
3762.779324000959
 20
2427.367963939618
 30
0.0
 50
45.00000000000037
1001
REVIT
1002
{
1070
     1
1000
768529
1002
}
1002
{
1070
     5
1000
767633
1002
}
1002
{
1070
     2
1000
-2002000
1002
}
  0
INSERT
  5
140
330
70
100
AcDbEntity
  8
_ARDEX - WELDTEC TANKING_
 62
   133
420
  7589074
100
AcDbBlockReference
  2
_ARDEX_ Lines - WPM 3000X DPM Membrane-768589-_X_ - AS-09 OPEN CUT WALL PIPE PENETRATION
 10
3770.792677944394
 20
2435.381317883054
 30
0.0
1001
REVIT
1002
{
1070
     1
1000
768530
1002
}
1002
{
1070
     5
1000
767633
1002
}
1002
{
1070
     2
1000
-2002000
1002
}
  0
INSERT
  5
145
330
70
100
AcDbEntity
  8
_ARDEX - WELDTEC TANKING_
 62
   133
420
  7589074
100
AcDbBlockReference
  2
_ARDEX_ Lines - WPM 3000X DPM Membrane-768607-_X_ - AS-09 OPEN CUT WALL PIPE PENETRATION
 10
3849.32421953022
 20
2491.445944642029
 30
0.0
 50
180.0
1001
REVIT
1002
{
1070
     1
1000
768516
1002
}
1002
{
1070
     5
1000
767633
1002
}
1002
{
1070
     2
1000
-2002000
1002
}
  0
INSERT
  5
14A
330
70
100
AcDbEntity
  8
_ARDEX - WELDTEC TANKING_
 62
   133
420
  7589074
100
AcDbBlockReference
  2
_ARDEX_ Lines - WPM 3000X DPM Membrane-768608-_X_ - AS-09 OPEN CUT WALL PIPE PENETRATION
 10
3824.32421953022
 20
2491.445944642029
 30
0.0
 50
134.9999999999964
1001
REVIT
1002
{
1070
     1
1000
768517
1002
}
1002
{
1070
     5
1000
767633
1002
}
1002
{
1070
     2
1000
-2002000
1002
}
  0
INSERT
  5
14F
330
70
100
AcDbEntity
  8
_ARDEX - WELDTEC TANKING_
 62
   133
420
  7589074
100
AcDbBlockReference
  2
_ARDEX_ Lines - WPM 3000X DPM Membrane-768609-_X_ - AS-09 OPEN CUT WALL PIPE PENETRATION
 10
3820.788685624289
 20
2494.981478547963
 30
0.0
 50
180.0
1001
REVIT
1002
{
1070
     1
1000
768518
1002
}
1002
{
1070
     5
1000
767633
1002
}
1002
{
1070
     2
1000
-2002000
1002
}
  0
INSERT
  5
154
330
70
100
AcDbEntity
  8
_ARDEX - WELDTEC TANKING_
 62
   133
420
  7589074
100
AcDbBlockReference
  2
_ARDEX_ Lines - WPM 3000X DPM Membrane-768610-_X_ - AS-09 OPEN CUT WALL PIPE PENETRATION
 10
3771.943177940636
 20
2494.981478547963
 30
0.0
 41
0.9999999999999998
 42
0.9999999999999998
 43
0.9999999999999998
 50
134.9999999999992
1001
REVIT
1002
{
1070
     1
1000
768519
1002
}
1002
{
1070
     5
1000
767633
1002
}
1002
{
1070
     2
1000
-2002000
1002
}
  0
INSERT
  5
159
330
70
100
AcDbEntity
  8
_ARDEX - WELDTEC TANKING_
 62
     8
420
  8421504
100
AcDbBlockReference
  2
_ARDEX_ Lines - RA 030 Sealant-765039-_X_ - AS-09 OPEN CUT WALL PIPE PENETRATION
 10
3850.112388257551
 20
2493.94594464203
 30
0.0
 41
0.9999999999999998
 42
0.9999999999999998
 43
0.9999999999999998
 50
315.0
1001
REVIT
1002
{
1070
     1
1000
768520
1002
}
1002
{
1070
     5
1000
605262
1002
}
1002
{
1070
     2
1000
-2002000
1002
}
  0
INSERT
  5
15A
330
70
100
AcDbEntity
  8
_ARDEX - WELDTEC TANKING_
 62
     8
420
  8421504
100
AcDbBlockReference
  2
_ARDEX_ Lines - RA 030 Sealant-764984-_X_ - AS-09 OPEN CUT WALL PIPE PENETRATION
 10
3852.910520088162
 20
2491.147812811419
 30
0.0
1001
REVIT
1002
{
1070
     1
1000
768521
1002
}
1002
{
1070
     5
1000
605262
1002
}
1002
{
1070
     2
1000
-2002000
1002
}
  0
INSERT
  5
15F
330
70
100
AcDbEntity
  8
_ARDEX - WELDTEC TANKING_
 62
   133
420
  7589074
100
AcDbBlockReference
  2
_ARDEX_ Lines - WPM 3000X DPM Membrane-768579-_X_ - AS-09 OPEN CUT WALL PIPE PENETRATION
 10
3849.324219530219
 20
2435.824711098105
 30
0.0
 50
180.0
1001
REVIT
1002
{
1070
     1
1000
768531
1002
}
1002
{
1070
     5
1000
767633
1002
}
1002
{
1070
     2
1000
-2002000
1002
}
  0
INSERT
  5
164
330
70
100
AcDbEntity
  8
_ARDEX - WELDTEC TANKING_
 62
   133
420
  7589074
100
AcDbBlockReference
  2
_ARDEX_ Lines - WPM 3000X DPM Membrane-768580-_X_ - AS-09 OPEN CUT WALL PIPE PENETRATION
 10
3824.32421953022
 20
2435.824711098106
 30
0.0
 50
225.0000000000032
1001
REVIT
1002
{
1070
     1
1000
768532
1002
}
1002
{
1070
     5
1000
767633
1002
}
1002
{
1070
     2
1000
-2002000
1002
}
  0
INSERT
  5
169
330
70
100
AcDbEntity
  8
_ARDEX - WELDTEC TANKING_
 62
   133
420
  7589074
100
AcDbBlockReference
  2
_ARDEX_ Lines - WPM 3000X DPM Membrane-768581-_X_ - AS-09 OPEN CUT WALL PIPE PENETRATION
 10
3820.788685624288
 20
2432.289177192173
 30
0.0
 50
180.0
1001
REVIT
1002
{
1070
     1
1000
768533
1002
}
1002
{
1070
     5
1000
767633
1002
}
1002
{
1070
     2
1000
-2002000
1002
}
  0
INSERT
  5
16E
330
70
100
AcDbEntity
  8
_ARDEX - WELDTEC TANKING_
 62
   133
420
  7589074
100
AcDbBlockReference
  2
_ARDEX_ Lines - WPM 3000X DPM Membrane-768582-_X_ - AS-09 OPEN CUT WALL PIPE PENETRATION
 10
3771.943177940631
 20
2432.289177192173
 30
0.0
 50
225.0000000000003
1001
REVIT
1002
{
1070
     1
1000
768534
1002
}
1002
{
1070
     5
1000
767633
1002
}
1002
{
1070
     2
1000
-2002000
1002
}
  0
INSERT
  5
173
330
70
100
AcDbEntity
  8
_ARDEX - WELDTEC TANKING_
 62
     8
420
  8421504
100
AcDbBlockReference
  2
_ARDEX_ Lines - RA 030 Sealant-765198-_X_ - AS-09 OPEN CUT WALL PIPE PENETRATION
 10
3850.11238825755
 20
2433.324711098104
 30
0.0
 50
44.99999999999955
1001
REVIT
1002
{
1070
     1
1000
768535
1002
}
1002
{
1070
     5
1000
605262
1002
}
1002
{
1070
     2
1000
-2002000
1002
}
  0
INSERT
  5
174
330
70
100
AcDbEntity
  8
_ARDEX - WELDTEC TANKING_
 62
     8
420
  8421504
100
AcDbBlockReference
  2
_ARDEX_ Lines - RA 030 Sealant-765191-_X_ - AS-09 OPEN CUT WALL PIPE PENETRATION
 10
3852.910520088162
 20
2436.122842928715
 30
0.0
1001
REVIT
1002
{
1070
     1
1000
768536
1002
}
1002
{
1070
     5
1000
605262
1002
}
1002
{
1070
     2
1000
-2002000
1002
}
  0
INSERT
  5
179
330
70
100
AcDbEntity
  8
_ARDEX - WELDTEC TANKING_
100
AcDbBlockReference
  2
_ARDEX_ Lines - WPM240 Primer-766617-_X_ - AS-09 OPEN CUT WALL PIPE PENETRATION
 10
3760.304047244292
 20
2500.419292563498
 30
0.0
 50
90.0
1001
REVIT
1002
{
1070
     1
1000
768547
1002
}
1002
{
1070
     5
1000
708929
1002
}
1002
{
1070
     2
1000
-2002000
1002
}
  0
INSERT
  5
17E
330
70
100
AcDbEntity
  8
_ARDEX - WELDTEC TANKING_
 62
   133
420
  7589074
100
AcDbBlockReference
  2
_ARDEX_ Lines - WPM 3000X DPM Membrane-768611-_X_ - AS-09 OPEN CUT WALL PIPE PENETRATION
 10
3769.070599727643
 20
2497.854056760955
 30
0.0
 50
90.0
1001
REVIT
1002
{
1070
     1
1000
768540
1002
}
1002
{
1070
     5
1000
767633
1002
}
1002
{
1070
     2
1000
-2002000
1002
}
  0
INSERT
  5
183
330
70
100
AcDbEntity
  8
_ARDEX - WELDTEC TANKING_
 62
   133
420
  7589074
100
AcDbBlockReference
  2
_ARDEX_ Lines - WPM 3000X DPM Membrane-768612-_X_ - AS-09 OPEN CUT WALL PIPE PENETRATION
 10
3769.070599727643
 20
2549.699564444609
 30
0.0
 50
134.9999999999949
1001
REVIT
1002
{
1070
     1
1000
768541
1002
}
1002
{
1070
     5
1000
767633
1002
}
1002
{
1070
     2
1000
-2002000
1002
}
  0
INSERT
  5
188
330
70
100
AcDbEntity
  8
_ARDEX - WELDTEC TANKING_
 62
   133
420
  7589074
100
AcDbBlockReference
  2
_ARDEX_ Lines - WPM 3000X DPM Membrane-768613-_X_ - AS-09 OPEN CUT WALL PIPE PENETRATION
 10
3766.036336207895
 20
2552.733827964357
 30
0.0
 50
90.0
1001
REVIT
1002
{
1070
     1
1000
768542
1002
}
1002
{
1070
     5
1000
767633
1002
}
1002
{
1070
     2
1000
-2002000
1002
}
  0
INSERT
  5
189
330
70
100
AcDbEntity
  8
_ARDEX - WELDTEC TANKING_
 62
   133
420
  7589074
100
AcDbBlockReference
  2
_ARDEX_ Lines - WPM 3000X DPM Membrane-768581-_X_ - AS-09 OPEN CUT WALL PIPE PENETRATION
 10
3769.070599727643
 20
2426.416598979184
 30
0.0
 50
270.0
1001
REVIT
1002
{
1070
     1
1000
768543
1002
}
1002
{
1070
     5
1000
767633
1002
}
1002
{
1070
     2
1000
-2002000
1002
}
  0
INSERT
  5
18E
330
70
100
AcDbEntity
  8
_ARDEX - WELDTEC TANKING_
 62
   133
420
  7589074
100
AcDbBlockReference
  2
_ARDEX_ Lines - WPM 3000X DPM Membrane-768618-_X_ - AS-09 OPEN CUT WALL PIPE PENETRATION
 10
3769.070599727643
 20
2377.571091295528
 30
0.0
 50
225.0000000000051
1001
REVIT
1002
{
1070
     1
1000
768544
1002
}
1002
{
1070
     5
1000
767633
1002
}
1002
{
1070
     2
1000
-2002000
1002
}
  0
INSERT
  5
193
330
70
100
AcDbEntity
  8
_ARDEX - WELDTEC TANKING_
 62
   133
420
  7589074
100
AcDbBlockReference
  2
_ARDEX_ Lines - WPM 3000X DPM Membrane-768619-_X_ - AS-09 OPEN CUT WALL PIPE PENETRATION
 10
3766.036336207895
 20
2374.536827775779
 30
0.0
 50
270.0
1001
REVIT
1002
{
1070
     1
1000
768545
1002
}
1002
{
1070
     5
1000
767633
1002
}
1002
{
1070
     2
1000
-2002000
1002
}
  0
INSERT
  5
198
330
70
100
AcDbEntity
  8
_ARDEX - WELDTEC TANKING_
100
AcDbBlockReference
  2
_ARDEX_ Lines - WPM240 Primer-766992-_X_ - AS-09 OPEN CUT WALL PIPE PENETRATION
 10
3760.304047244291
 20
2426.635327870068
 30
0.0
 50
270.0
1001
REVIT
1002
{
1070
     1
1000
768549
1002
}
1002
{
1070
     5
1000
708929
1002
}
1002
{
1070
     2
1000
-2002000
1002
}
  0
CIRCLE
  5
199
330
70
100
AcDbEntity
  8
_ARDEX - WELDTEC TANKING_
100
AcDbCircle
 10
3856.298160929336
 20
2434.037775335082
 30
0.0
 40
1.5
1001
REVIT
1002
{
1070
     1
1000
768522
1002
}
1002
{
1070
     5
1000
613215
1002
}
1002
{
1070
     2
1000
-2005022
1002
}
  0
HATCH
  5
19A
330
70
100
AcDbEntity
  8
_ARDEX - WELDTEC TANKING_
100
AcDbHatch
 10
0.0
 20
0.0
 30
0.0
210
0.0
220
0.0
230
1.0
  2
SOLID
 70
     1
 71
     0
 91
        1
 92
        1
 93
        1
 72
     2
 10
3856.298160929336
 20
2434.037775335082
 40
1.5
 50
0.0
 51
360.0
 73
     1
 97
        0
 75
     0
 76
     1
 98
        1
 10
0.0
 20
0.0
450
        0
451
        0
460
0.0
461
0.0
452
        0
462
0.0
453
        0
470

1001
REVIT
1002
{
1070
     1
1000
768522
1002
}
1002
{
1070
     5
1000
613215
1002
}
1002
{
1070
     2
1000
-2005022
1002
}
  0
LINE
  5
19B
330
70
100
AcDbEntity
  8
_ARDEX - WELDTEC TANKING_
100
AcDbLine
 10
3856.298160929336
 20
2349.638351674311
 30
0.0
 11
3486.618777473415
 21
2349.638351674311
 31
0.0
1001
REVIT
1002
{
1070
     1
1000
768522
1002
}
1002
{
1070
     5
1000
613215
1002
}
1002
{
1070
     2
1000
-2005022
1002
}
  0
LINE
  5
19C
330
70
100
AcDbEntity
  8
_ARDEX - WELDTEC TANKING_
100
AcDbLine
 10
3856.298160929336
 20
2434.037775335082
 30
0.0
 11
3856.298160929336
 21
2349.638351674311
 31
0.0
1001
REVIT
1002
{
1070
     1
1000
768522
1002
}
1002
{
1070
     5
1000
613215
1002
}
1002
{
1070
     2
1000
-2005022
1002
}
  0
MTEXT
  5
19E
330
70
100
AcDbEntity
  8
_ARDEX - WELDTEC TANKING_
100
AcDbMText
 10
3392.698777473415
 20
2365.084393340977
 30
0.0
 40
4.0
 41
94.75946249999998
 46
0.0
 71
     1
 72
     1
  1
ARDEX BITUMINOUS SEALANT
  7
Swis721 Lt BT
 73
     2
 44
1.0
1001
REVIT
1002
{
1070
     1
1000
768522
1002
}
1002
{
1070
     5
1000
613215
1002
}
1002
{
1070
     2
1000
-2005022
1002
}
  0
MTEXT
  5
19F
330
70
100
AcDbEntity
  8
_ARDEX - WELDTEC TANKING_
100
AcDbMText
 10
3392.698777473415
 20
2358.337518340977
 30
0.0
 40
4.0
 41
106.784775
 46
0.0
 71
     1
 72
     1
  1
GUNNED BETWEEN PRE-FORMED
  7
Swis721 Lt BT
 73
     2
 44
1.0
1001
REVIT
1002
{
1070
     1
1000
768522
1002
}
1002
{
1070
     5
1000
613215
1002
}
1002
{
1070
     2
1000
-2005022
1002
}
  0
MTEXT
  5
1A0
330
70
100
AcDbEntity
  8
_ARDEX - WELDTEC TANKING_
100
AcDbMText
 10
3392.698777473415
 20
2351.590643340977
 30
0.0
 40
4.0
 41
113.6792875
 46
0.0
 71
     1
 72
     1
  1
TOP HAT/BOOT FLASHING AND PIPE
  7
Swis721 Lt BT
 73
     2
 44
1.0
1001
REVIT
1002
{
1070
     1
1000
768522
1002
}
1002
{
1070
     5
1000
613215
1002
}
1002
{
1070
     2
1000
-2005022
1002
}
  0
MTEXT
  5
1A1
330
70
100
AcDbEntity
  8
_ARDEX - WELDTEC TANKING_
100
AcDbMText
 10
3392.698777473415
 20
2344.843768340977
 30
0.0
 40
4.0
 41
105.82275
 46
0.0
 71
     1
 72
     1
  1
PRIOR TO TIGHTENING OF CABLE
  7
Swis721 Lt BT
 73
     2
 44
1.0
1001
REVIT
1002
{
1070
     1
1000
768522
1002
}
1002
{
1070
     5
1000
613215
1002
}
1002
{
1070
     2
1000
-2005022
1002
}
  0
MTEXT
  5
1A2
330
70
100
AcDbEntity
  8
_ARDEX - WELDTEC TANKING_
100
AcDbMText
 10
3392.698777473415
 20
2338.096893340977
 30
0.0
 40
4.0
 41
9.459912499999999
 46
0.0
 71
     1
 72
     1
  1
TIE
  7
Swis721 Lt BT
 73
     2
 44
1.0
1001
REVIT
1002
{
1070
     1
1000
768522
1002
}
1002
{
1070
     5
1000
613215
1002
}
1002
{
1070
     2
1000
-2005022
1002
}
  0
CIRCLE
  5
1A3
330
70
100
AcDbEntity
  8
_ARDEX - WELDTEC TANKING_
100
AcDbCircle
 10
3604.459120619241
 20
2463.445767043185
 30
0.0
 40
1.5
1001
REVIT
1002
{
1070
     1
1000
768523
1002
}
1002
{
1070
     5
1000
613215
1002
}
1002
{
1070
     2
1000
-2005022
1002
}
  0
HATCH
  5
1A4
330
70
100
AcDbEntity
  8
_ARDEX - WELDTEC TANKING_
100
AcDbHatch
 10
0.0
 20
0.0
 30
0.0
210
0.0
220
0.0
230
1.0
  2
SOLID
 70
     1
 71
     0
 91
        1
 92
        1
 93
        1
 72
     2
 10
3604.459120619241
 20
2463.445767043185
 40
1.5
 50
0.0
 51
360.0
 73
     1
 97
        0
 75
     0
 76
     1
 98
        1
 10
0.0
 20
0.0
450
        0
451
        0
460
0.0
461
0.0
452
        0
462
0.0
453
        0
470

1001
REVIT
1002
{
1070
     1
1000
768523
1002
}
1002
{
1070
     5
1000
613215
1002
}
1002
{
1070
     2
1000
-2005022
1002
}
  0
LINE
  5
1A5
330
70
100
AcDbEntity
  8
_ARDEX - WELDTEC TANKING_
100
AcDbLine
 10
3604.459120619241
 20
2463.445767043185
 30
0.0
 11
3404.478777473415
 21
2463.445767043185
 31
0.0
1001
REVIT
1002
{
1070
     1
1000
768523
1002
}
1002
{
1070
     5
1000
613215
1002
}
1002
{
1070
     2
1000
-2005022
1002
}
  0
MTEXT
  5
1A6
330
70
100
AcDbEntity
  8
_ARDEX - WELDTEC TANKING_
100
AcDbMText
 10
3392.698777473415
 20
2465.401808709852
 30
0.0
 40
4.0
 41
14.1097
 46
0.0
 71
     1
 72
     1
  1
PIPE
  7
Swis721 Lt BT
 73
     2
 44
1.0
1001
REVIT
1002
{
1070
     1
1000
768523
1002
}
1002
{
1070
     5
1000
613215
1002
}
1002
{
1070
     2
1000
-2005022
1002
}
  0
CIRCLE
  5
1A7
330
70
100
AcDbEntity
  8
_ARDEX - WELDTEC TANKING_
100
AcDbCircle
 10
3762.779324000959
 20
2559.665169919851
 30
0.0
 40
1.5
1001
REVIT
1002
{
1070
     1
1000
768524
1002
}
1002
{
1070
     5
1000
613215
1002
}
1002
{
1070
     2
1000
-2005022
1002
}
  0
HATCH
  5
1A8
330
70
100
AcDbEntity
  8
_ARDEX - WELDTEC TANKING_
100
AcDbHatch
 10
0.0
 20
0.0
 30
0.0
210
0.0
220
0.0
230
1.0
  2
SOLID
 70
     1
 71
     0
 91
        1
 92
        1
 93
        1
 72
     2
 10
3762.779324000959
 20
2559.665169919851
 40
1.5
 50
0.0
 51
360.0
 73
     1
 97
        0
 75
     0
 76
     1
 98
        1
 10
0.0
 20
0.0
450
        0
451
        0
460
0.0
461
0.0
452
        0
462
0.0
453
        0
470

1001
REVIT
1002
{
1070
     1
1000
768524
1002
}
1002
{
1070
     5
1000
613215
1002
}
1002
{
1070
     2
1000
-2005022
1002
}
  0
LINE
  5
1A9
330
70
100
AcDbEntity
  8
_ARDEX - WELDTEC TANKING_
100
AcDbLine
 10
3762.779324000959
 20
2559.665169919851
 30
0.0
 11
3455.538777473414
 21
2559.665169919851
 31
0.0
1001
REVIT
1002
{
1070
     1
1000
768524
1002
}
1002
{
1070
     5
1000
613215
1002
}
1002
{
1070
     2
1000
-2005022
1002
}
  0
MTEXT
  5
1AA
330
70
100
AcDbEntity
  8
_ARDEX - WELDTEC TANKING_
100
AcDbMText
 10
3392.698777473415
 20
2564.991211586518
 30
0.0
 40
4.0
 41
75.99997499999999
 46
0.0
 71
     1
 72
     1
  1
ARDEX WPM 3000X DPM
  7
Swis721 Lt BT
 73
     2
 44
1.0
1001
REVIT
1002
{
1070
     1
1000
768524
1002
}
1002
{
1070
     5
1000
613215
1002
}
1002
{
1070
     2
1000
-2005022
1002
}
  0
MTEXT
  5
1AB
330
70
100
AcDbEntity
  8
_ARDEX - WELDTEC TANKING_
100
AcDbMText
 10
3392.698777473415
 20
2558.244336586517
 30
0.0
 40
4.0
 41
37.518975
 46
0.0
 71
     1
 72
     1
  1
MEMBRANE
  7
Swis721 Lt BT
 73
     2
 44
1.0
1001
REVIT
1002
{
1070
     1
1000
768524
1002
}
1002
{
1070
     5
1000
613215
1002
}
1002
{
1070
     2
1000
-2005022
1002
}
  0
CIRCLE
  5
1AC
330
70
100
AcDbEntity
  8
_ARDEX - WELDTEC TANKING_
100
AcDbCircle
 10
3766.057348689575
 20
2519.808297296638
 30
0.0
 40
1.499999999999751
1001
REVIT
1002
{
1070
     1
1000
768525
1002
}
1002
{
1070
     5
1000
613215
1002
}
1002
{
1070
     2
1000
-2005022
1002
}
  0
HATCH
  5
1AD
330
70
100
AcDbEntity
  8
_ARDEX - WELDTEC TANKING_
100
AcDbHatch
 10
0.0
 20
0.0
 30
0.0
210
0.0
220
0.0
230
1.0
  2
SOLID
 70
     1
 71
     0
 91
        1
 92
        1
 93
        1
 72
     2
 10
3766.057348689575
 20
2519.808297296638
 40
1.499999999999751
 50
0.0
 51
360.0
 73
     1
 97
        0
 75
     0
 76
     1
 98
        1
 10
0.0
 20
0.0
450
        0
451
        0
460
0.0
461
0.0
452
        0
462
0.0
453
        0
470

1001
REVIT
1002
{
1070
     1
1000
768525
1002
}
1002
{
1070
     5
1000
613215
1002
}
1002
{
1070
     2
1000
-2005022
1002
}
  0
LINE
  5
1AE
330
70
100
AcDbEntity
  8
_ARDEX - WELDTEC TANKING_
100
AcDbLine
 10
3766.057348689575
 20
2519.808297296638
 30
0.0
 11
3484.378777473415
 21
2519.818297296638
 31
0.0
1001
REVIT
1002
{
1070
     1
1000
768525
1002
}
1002
{
1070
     5
1000
613215
1002
}
1002
{
1070
     2
1000
-2005022
1002
}
  0
MTEXT
  5
1AF
330
70
100
AcDbEntity
  8
_ARDEX - WELDTEC TANKING_
100
AcDbMText
 10
3392.698777473415
 20
2528.514338963305
 30
0.0
 40
4.0
 41
75.99997499999999
 46
0.0
 71
     1
 72
     1
  1
ARDEX WPM 3000X DPM
  7
Swis721 Lt BT
 73
     2
 44
1.0
1001
REVIT
1002
{
1070
     1
1000
768525
1002
}
1002
{
1070
     5
1000
613215
1002
}
1002
{
1070
     2
1000
-2005022
1002
}
  0
MTEXT
  5
1B0
330
70
100
AcDbEntity
  8
_ARDEX - WELDTEC TANKING_
100
AcDbMText
 10
3392.698777473415
 20
2521.767463963305
 30
0.0
 40
4.0
 41
110.95355
 46
0.0
 71
     1
 72
     1
  1
UNDERFLASHING MINIMUM 300mm
  7
Swis721 Lt BT
 73
     2
 44
1.0
1001
REVIT
1002
{
1070
     1
1000
768525
1002
}
1002
{
1070
     5
1000
613215
1002
}
1002
{
1070
     2
1000
-2005022
1002
}
  0
MTEXT
  5
1B1
330
70
100
AcDbEntity
  8
_ARDEX - WELDTEC TANKING_
100
AcDbMText
 10
3392.698777473415
 20
2515.020588963305
 30
0.0
 40
4.0
 41
16.5147625
 46
0.0
 71
     1
 72
     1
  1
WIDE
  7
Swis721 Lt BT
 73
     2
 44
1.0
1001
REVIT
1002
{
1070
     1
1000
768525
1002
}
1002
{
1070
     5
1000
613215
1002
}
1002
{
1070
     2
1000
-2005022
1002
}
  0
CIRCLE
  5
1B2
330
70
100
AcDbEntity
  8
_ARDEX - WELDTEC TANKING_
100
AcDbCircle
 10
3788.960052329232
 20
2430.999216042229
 30
0.0
 40
1.5
1001
REVIT
1002
{
1070
     1
1000
768537
1002
}
1002
{
1070
     5
1000
613215
1002
}
1002
{
1070
     2
1000
-2005022
1002
}
  0
HATCH
  5
1B3
330
70
100
AcDbEntity
  8
_ARDEX - WELDTEC TANKING_
100
AcDbHatch
 10
0.0
 20
0.0
 30
0.0
210
0.0
220
0.0
230
1.0
  2
SOLID
 70
     1
 71
     0
 91
        1
 92
        1
 93
        1
 72
     2
 10
3788.960052329232
 20
2430.999216042229
 40
1.5
 50
0.0
 51
360.0
 73
     1
 97
        0
 75
     0
 76
     1
 98
        1
 10
0.0
 20
0.0
450
        0
451
        0
460
0.0
461
0.0
452
        0
462
0.0
453
        0
470

1001
REVIT
1002
{
1070
     1
1000
768537
1002
}
1002
{
1070
     5
1000
613215
1002
}
1002
{
1070
     2
1000
-2005022
1002
}
  0
LINE
  5
1B4
330
70
100
AcDbEntity
  8
_ARDEX - WELDTEC TANKING_
100
AcDbLine
 10
3788.960052329232
 20
2389.62065685509
 30
0.0
 11
3455.538777473414
 21
2389.62065685509
 31
0.0
1001
REVIT
1002
{
1070
     1
1000
768537
1002
}
1002
{
1070
     5
1000
613215
1002
}
1002
{
1070
     2
1000
-2005022
1002
}
  0
LINE
  5
1B5
330
70
100
AcDbEntity
  8
_ARDEX - WELDTEC TANKING_
100
AcDbLine
 10
3788.960052329232
 20
2430.999216042229
 30
0.0
 11
3788.960052329232
 21
2389.62065685509
 31
0.0
1001
REVIT
1002
{
1070
     1
1000
768537
1002
}
1002
{
1070
     5
1000
613215
1002
}
1002
{
1070
     2
1000
-2005022
1002
}
  0
MTEXT
  5
1B6
330
70
100
AcDbEntity
  8
_ARDEX - WELDTEC TANKING_
100
AcDbMText
 10
3392.698777473415
 20
2394.946698521756
 30
0.0
 40
4.0
 41
75.99997499999999
 46
0.0
 71
     1
 72
     1
  1
ARDEX WPM 3000X DPM
  7
Swis721 Lt BT
 73
     2
 44
1.0
1001
REVIT
1002
{
1070
     1
1000
768537
1002
}
1002
{
1070
     5
1000
613215
1002
}
1002
{
1070
     2
1000
-2005022
1002
}
  0
MTEXT
  5
1B7
330
70
100
AcDbEntity
  8
_ARDEX - WELDTEC TANKING_
100
AcDbMText
 10
3392.698777473415
 20
2388.199823521756
 30
0.0
 40
4.0
 41
37.518975
 46
0.0
 71
     1
 72
     1
  1
MEMBRANE
  7
Swis721 Lt BT
 73
     2
 44
1.0
1001
REVIT
1002
{
1070
     1
1000
768537
1002
}
1002
{
1070
     5
1000
613215
1002
}
1002
{
1070
     2
1000
-2005022
1002
}
  0
CIRCLE
  5
1B8
330
70
100
AcDbEntity
  8
_ARDEX - WELDTEC TANKING_
100
AcDbCircle
 10
3758.828607405231
 20
2433.615349809572
 30
0.0
 40
1.5
1001
REVIT
1002
{
1070
     1
1000
768539
1002
}
1002
{
1070
     5
1000
613215
1002
}
1002
{
1070
     2
1000
-2005022
1002
}
  0
HATCH
  5
1B9
330
70
100
AcDbEntity
  8
_ARDEX - WELDTEC TANKING_
100
AcDbHatch
 10
0.0
 20
0.0
 30
0.0
210
0.0
220
0.0
230
1.0
  2
SOLID
 70
     1
 71
     0
 91
        1
 92
        1
 93
        1
 72
     2
 10
3758.828607405231
 20
2433.615349809572
 40
1.5
 50
0.0
 51
360.0
 73
     1
 97
        0
 75
     0
 76
     1
 98
        1
 10
0.0
 20
0.0
450
        0
451
        0
460
0.0
461
0.0
452
        0
462
0.0
453
        0
470

1001
REVIT
1002
{
1070
     1
1000
768539
1002
}
1002
{
1070
     5
1000
613215
1002
}
1002
{
1070
     2
1000
-2005022
1002
}
  0
LINE
  5
1BA
330
70
100
AcDbEntity
  8
_ARDEX - WELDTEC TANKING_
100
AcDbLine
 10
3758.828607405231
 20
2433.615349809572
 30
0.0
 11
3471.018777473414
 21
2433.615349809572
 31
0.0
1001
REVIT
1002
{
1070
     1
1000
768539
1002
}
1002
{
1070
     5
1000
613215
1002
}
1002
{
1070
     2
1000
-2005022
1002
}
  0
MTEXT
  5
1BB
330
70
100
AcDbEntity
  8
_ARDEX - WELDTEC TANKING_
100
AcDbMText
 10
3392.698777473415
 20
2438.941391476238
 30
0.0
 40
4.0
 41
94.75946249999998
 46
0.0
 71
     1
 72
     1
  1
ARDEX BITUMINOUS SEALANT
  7
Swis721 Lt BT
 73
     2
 44
1.0
1001
REVIT
1002
{
1070
     1
1000
768539
1002
}
1002
{
1070
     5
1000
613215
1002
}
1002
{
1070
     2
1000
-2005022
1002
}
  0
MTEXT
  5
1BC
330
70
100
AcDbEntity
  8
_ARDEX - WELDTEC TANKING_
100
AcDbMText
 10
3392.698777473415
 20
2432.194516476238
 30
0.0
 40
4.0
 41
38.32066249999999
 46
0.0
 71
     1
 72
     1
  1
12mm BEAD
  7
Swis721 Lt BT
 73
     2
 44
1.0
1001
REVIT
1002
{
1070
     1
1000
768539
1002
}
1002
{
1070
     5
1000
613215
1002
}
1002
{
1070
     2
1000
-2005022
1002
}
  0
CIRCLE
  5
1BD
330
70
100
AcDbEntity
  8
_ARDEX - WELDTEC TANKING_
100
AcDbCircle
 10
3677.516170212775
 20
2492.167236405614
 30
0.0
 40
1.500000000000454
1001
REVIT
1002
{
1070
     1
1000
768546
1002
}
1002
{
1070
     5
1000
343954
1002
}
1002
{
1070
     2
1000
-2000300
1002
}
  0
HATCH
  5
1BE
330
70
100
AcDbEntity
  8
_ARDEX - WELDTEC TANKING_
100
AcDbHatch
 10
0.0
 20
0.0
 30
0.0
210
0.0
220
0.0
230
1.0
  2
SOLID
 70
     1
 71
     0
 91
        1
 92
        1
 93
        1
 72
     2
 10
3677.516170212775
 20
2492.167236405614
 40
1.500000000000454
 50
0.0
 51
360.0
 73
     1
 97
        0
 75
     0
 76
     1
 98
        1
 10
0.0
 20
0.0
450
        0
451
        0
460
0.0
461
0.0
452
        0
462
0.0
453
        0
470

1001
REVIT
1002
{
1070
     1
1000
768546
1002
}
1002
{
1070
     5
1000
343954
1002
}
1002
{
1070
     2
1000
-2000300
1002
}
  0
LINE
  5
1BF
330
70
100
AcDbEntity
  8
_ARDEX - WELDTEC TANKING_
100
AcDbLine
 10
3677.516170212775
 20
2492.167236405614
 30
0.0
 11
3432.963426639383
 21
2492.167236405614
 31
0.0
1001
REVIT
1002
{
1070
     1
1000
768546
1002
}
1002
{
1070
     5
1000
343954
1002
}
1002
{
1070
     2
1000
-2000300
1002
}
  0
MTEXT
  5
1C0
330
70
100
AcDbEntity
  8
_ARDEX - WELDTEC TANKING_
100
AcDbMText
 10
3393.406226004638
 20
2494.167236405614
 30
0.0
 40
4.0
 41
41.5274125
 46
0.0
 71
     1
 72
     1
  1
WATER STOP
  7
Swis721 Lt BT
 73
     2
 44
1.0
1001
REVIT
1002
{
1070
     1
1000
768546
1002
}
1002
{
1070
     5
1000
343954
1002
}
1002
{
1070
     2
1000
-2000300
1002
}
  0
CIRCLE
  5
1C1
330
70
100
AcDbEntity
  8
_ARDEX - WELDTEC TANKING_
100
AcDbCircle
 10
3758.72823649484
 20
2600.885395852786
 30
0.0
 40
1.5
1001
REVIT
1002
{
1070
     1
1000
768548
1002
}
1002
{
1070
     5
1000
613215
1002
}
1002
{
1070
     2
1000
-2005022
1002
}
  0
HATCH
  5
1C2
330
70
100
AcDbEntity
  8
_ARDEX - WELDTEC TANKING_
100
AcDbHatch
 10
0.0
 20
0.0
 30
0.0
210
0.0
220
0.0
230
1.0
  2
SOLID
 70
     1
 71
     0
 91
        1
 92
        1
 93
        1
 72
     2
 10
3758.72823649484
 20
2600.885395852786
 40
1.5
 50
0.0
 51
360.0
 73
     1
 97
        0
 75
     0
 76
     1
 98
        1
 10
0.0
 20
0.0
450
        0
451
        0
460
0.0
461
0.0
452
        0
462
0.0
453
        0
470

1001
REVIT
1002
{
1070
     1
1000
768548
1002
}
1002
{
1070
     5
1000
613215
1002
}
1002
{
1070
     2
1000
-2005022
1002
}
  0
LINE
  5
1C3
330
70
100
AcDbEntity
  8
_ARDEX - WELDTEC TANKING_
100
AcDbLine
 10
3625.218063081495
 20
2600.885395852786
 30
0.0
 11
3472.478777473415
 21
2600.895395852786
 31
0.0
1001
REVIT
1002
{
1070
     1
1000
768548
1002
}
1002
{
1070
     5
1000
613215
1002
}
1002
{
1070
     2
1000
-2005022
1002
}
  0
LINE
  5
1C4
330
70
100
AcDbEntity
  8
_ARDEX - WELDTEC TANKING_
100
AcDbLine
 10
3758.72823649484
 20
2600.885395852786
 30
0.0
 11
3625.218063081495
 21
2600.885395852786
 31
0.0
1001
REVIT
1002
{
1070
     1
1000
768548
1002
}
1002
{
1070
     5
1000
613215
1002
}
1002
{
1070
     2
1000
-2005022
1002
}
  0
MTEXT
  5
1C5
330
70
100
AcDbEntity
  8
_ARDEX - WELDTEC TANKING_
100
AcDbMText
 10
3389.798777473415
 20
2609.591437519453
 30
0.0
 40
4.0
 41
100.0506
 46
0.0
 71
     1
 72
     1
  1
ARDEX WPM 240/247 OR ARDEX
  7
Swis721 Lt BT
 73
     2
 44
1.0
1001
REVIT
1002
{
1070
     1
1000
768548
1002
}
1002
{
1070
     5
1000
613215
1002
}
1002
{
1070
     2
1000
-2005022
1002
}
  0
MTEXT
  5
1C6
330
70
100
AcDbEntity
  8
_ARDEX - WELDTEC TANKING_
100
AcDbMText
 10
3389.798777473415
 20
2602.844562519453
 30
0.0
 40
4.0
 41
89.30798749999999
 46
0.0
 71
     1
 72
     1
  1
WPM 300 FOR DAMP/GREEN
  7
Swis721 Lt BT
 73
     2
 44
1.0
1001
REVIT
1002
{
1070
     1
1000
768548
1002
}
1002
{
1070
     5
1000
613215
1002
}
1002
{
1070
     2
1000
-2005022
1002
}
  0
MTEXT
  5
1C7
330
70
100
AcDbEntity
  8
_ARDEX - WELDTEC TANKING_
100
AcDbMText
 10
3389.798777473415
 20
2596.097687519453
 30
0.0
 40
4.0
 41
36.236275
 46
0.0
 71
     1
 72
     1
  1
CONCRETE
  7
Swis721 Lt BT
 73
     2
 44
1.0
1001
REVIT
1002
{
1070
     1
1000
768548
1002
}
1002
{
1070
     5
1000
613215
1002
}
1002
{
1070
     2
1000
-2005022
1002
}
  0
VIEWPORT
  5
1C8
330
6C
100
AcDbEntity
 67
     1
  8
_ARDEX - WELDTEC TANKING_
100
AcDbViewport
 10
145.3206709818606
 20
98.90472072059221
 30
0.0
 40
283.0000115076765
 41
200.6000046070426
 68
    -1
 69
     2
 12
3652.384083370216
 22
2446.357793104156
 13
0.0
 23
0.0
 14
0.0
 24
0.0
 15
0.0
 25
0.0
 16
0.0
 26
0.0
 36
1.0
 17
0.0
 27
0.0
 37
0.0
 42
0.0
 43
0.0
 44
0.0
 45
401.2000092140852
 50
0.0
 51
0.0
 72
  1000
 90
    32768
  1

281
     0
 71
     1
 74
     1
110
0.0
120
0.0
130
0.0
111
1.0
121
0.0
131
0.0
112
0.0
122
1.0
132
0.0
 79
     0
146
0.0
170
     0
 61
     5
292
     1
282
     1
141
0.0
142
0.0
 63
   250
421
  3355443
  0
VIEWPORT
  5
1CA
330
6C
100
AcDbEntity
 67
     1
  8
0
100
AcDbViewport
 10
6.0
 20
4.5
 30
0.0
 40
12.0
 41
9.0
 68
    -1
 69
     1
 12
6.0
 22
4.5
 13
0.0
 23
0.0
 14
0.0
 24
0.0
 15
0.0
 25
0.0
 16
0.0
 26
0.0
 36
1.0
 17
0.0
 27
0.0
 37
0.0
 42
50.0
 43
0.0
 44
0.0
 45
12.0
 50
0.0
 51
0.0
 72
   100
 90
    32800
  1

281
     0
 71
     1
 74
     1
110
0.0
120
0.0
130
0.0
111
1.0
121
0.0
131
0.0
112
0.0
122
1.0
132
0.0
 79
     0
146
0.0
170
     0
 61
     5
292
     1
282
     1
141
0.0
142
0.0
 63
   250
421
  3355443
  0
INSERT
  5
25D
330
6C
100
AcDbEntity
 67
     1
  8
_ARDEX - WELDTEC TANKING_
 62
   133
420
  7589074
100
AcDbBlockReference
  2
_ARDEX_ Landscape Title block Weldtec Tanking - WPM 3000X-677308-OPEN CUT WALL PIPE PENETRATION
 10
0.0
 20
0.0
 30
0.0
1001
REVIT
1002
{
1070
     1
1000
769628
1002
}
1002
{
1070
     5
1000
677308
1002
}
1002
{
1070
     2
1000
-2000280
1002
}
  0
MTEXT
  5
25F
330
6C
100
AcDbEntity
 67
     1
  8
_ARDEX - WELDTEC TANKING_
100
AcDbMText
 10
229.7792895384866
 20
4.159953483062439
 30
0.0
 40
2.0
 41
7.295356249999999
 46
0.0
 71
     1
 72
     1
  1
 1 : 2
  7
Swis721 Lt BT_4
 73
     2
 44
1.0
 90
        3
 63
     9
421
 13158600
 45
1.25
441
        0
1001
REVIT
1002
{
1070
     1
1000
769628
1002
}
1002
{
1070
     5
1000
677308
1002
}
1002
{
1070
     2
1000
-2000280
1002
}
  0
MTEXT
  5
261
330
6C
100
AcDbEntity
 67
     1
  8
_ARDEX - WELDTEC TANKING_
100
AcDbMText
 10
95.1576274176504
 20
13.00813448458874
 30
0.0
 40
3.0
 41
86.02106875
 46
0.0
 71
     1
 72
     1
  1
OPEN CUT WALL PIPE PENETRATION
  7
Swis721 Lt BT_5
 73
     2
 44
1.0
 90
        3
 63
     9
421
 13158600
 45
1.25
441
        0
1001
REVIT
1002
{
1070
     1
1000
769628
1002
}
1002
{
1070
     5
1000
677308
1002
}
1002
{
1070
     2
1000
-2000280
1002
}
  0
MTEXT
  5
263
330
6C
100
AcDbEntity
 67
     1
  8
_ARDEX - WELDTEC TANKING_
100
AcDbMText
 10
220.4042895384866
 20
17.16307825028811
 30
0.0
 40
5.0
 41
35.27425
 46
0.0
 71
     1
 72
     1
  1
AS-09(X)
  7
Arial
 73
     2
 44
1.0
 90
        3
 63
     9
421
 13158600
 45
1.25
441
        0
1001
REVIT
1002
{
1070
     1
1000
769628
1002
}
1002
{
1070
     5
1000
677308
1002
}
1002
{
1070
     2
1000
-2000280
1002
}
  0
MTEXT
  5
264
330
6C
100
AcDbEntity
 67
     1
  8
_ARDEX - WELDTEC TANKING_
100
AcDbMText
 10
220.4042895384866
 20
8.218762607224899
 30
0.0
 40
2.0
 41
16.5147625
 46
0.0
 71
     1
 72
     1
  1
21.08.2022
  7
Swis721 Lt BT_4
 73
     2
 44
1.0
 90
        3
 63
     9
421
 13158600
 45
1.25
441
        0
1001
REVIT
1002
{
1070
     1
1000
769628
1002
}
1002
{
1070
     5
1000
677308
1002
}
1002
{
1070
     2
1000
-2000280
1002
}
  0
ENDSEC
  0
SECTION
  2
OBJECTS
  0
DICTIONARY
  5
C
330
0
100
AcDbDictionary
281
     1
  3
ACAD_CIP_PREVIOUS_PRODUCT_INFO
350
79
  3
ACAD_COLOR
350
63
  3
ACAD_DETAILVIEWSTYLE
350
6A
  3
ACAD_GROUP
350
D
  3
ACAD_IMAGE_VARS
350
7A
  3
ACAD_LAYOUT
350
62
  3
ACAD_MATERIAL
350
10
  3
ACAD_MLEADERSTYLE
350
66
  3
ACAD_MLINESTYLE
350
5F
  3
ACAD_PLOTSETTINGS
350
61
  3
ACAD_PLOTSTYLENAME
350
E
  3
ACAD_SCALELIST
350
42
  3
ACAD_SECTIONVIEWSTYLE
350
68
  3
ACAD_TABLESTYLE
350
64
  3
ACAD_VISUALSTYLE
350
29
  3
ACDB_RECOMPOSE_DATA
350
273
  3
AcDbVariableDictionary
350
7B
  3
REVIT_DICTIONARY
350
265
  0
SUN
  5
26D
330
57
100
AcDbSun
 90
        1
290
     1
 63
     7
421
 16777215
 40
0.3
291
     1
 91
  2459451
 92
 66031000
292
     0
 70
     1
 71
   128
280
     1
1001
ACAD
1000
AcDbSavedByObjectVersion
1070
     0
  0
DICTIONARY
  5
26A
330
70
100
AcDbDictionary
280
     1
281
     1
  3
ACAD_SORTENTS
360
26B
  0
XRECORD
  5
79
102
{ACAD_REACTORS
330
C
102
}
330
C
100
AcDbXrecord
280
     1
300
RVT
300
2023
300
RVT2023
  0
DICTIONARY
  5
63
102
{ACAD_REACTORS
330
C
102
}
330
C
100
AcDbDictionary
281
     1
  0
DICTIONARY
  5
6A
102
{ACAD_REACTORS
330
C
102
}
330
C
100
AcDbDictionary
281
     1
  3
Imperial24
350
6B
  0
DICTIONARY
  5
D
102
{ACAD_REACTORS
330
C
102
}
330
C
100
AcDbDictionary
281
     1
  0
RASTERVARIABLES
  5
7A
102
{ACAD_REACTORS
330
C
102
}
330
C
100
AcDbRasterVariables
 90
        0
 70
     0
 71
     1
 72
     1
  0
DICTIONARY
  5
62
102
{ACAD_REACTORS
330
C
102
}
330
C
100
AcDbDictionary
281
     1
  3
Layout1
350
6F
  3
Layout2
350
77
  3
Model
350
73
  0
DICTIONARY
  5
10
102
{ACAD_REACTORS
330
C
102
}
330
C
100
AcDbDictionary
281
     1
  3
ByBlock
350
19
  3
ByLayer
350
11
  3
Global
350
21
  0
DICTIONARY
  5
66
102
{ACAD_REACTORS
330
C
102
}
330
C
100
AcDbDictionary
281
     1
  3
Standard
350
67
  0
DICTIONARY
  5
5F
102
{ACAD_REACTORS
330
C
102
}
330
C
100
AcDbDictionary
281
     1
  3
Standard
350
60
  0
DICTIONARY
  5
61
102
{ACAD_REACTORS
330
C
102
}
330
C
100
AcDbDictionary
281
     1
  0
ACDBDICTIONARYWDFLT
  5
E
102
{ACAD_REACTORS
330
C
102
}
330
C
100
AcDbDictionary
281
     1
  3
Normal
350
F
100
AcDbDictionaryWithDefault
340
F
  0
DICTIONARY
  5
42
102
{ACAD_REACTORS
330
C
102
}
330
C
100
AcDbDictionary
281
     1
  3
A0
350
43
  3
A1
350
44
  3
A2
350
45
  3
A3
350
46
  3
A4
350
47
  3
A5
350
48
  3
A6
350
49
  3
A7
350
4A
  3
A8
350
4B
  3
A9
350
4C
  3
B0
350
4D
  3
B1
350
4E
  3
B2
350
4F
  3
B3
350
50
  3
B4
350
51
  3
B5
350
52
  3
B6
350
53
  0
DICTIONARY
  5
68
102
{ACAD_REACTORS
330
C
102
}
330
C
100
AcDbDictionary
281
     1
  3
Imperial24
350
69
  0
DICTIONARY
  5
64
102
{ACAD_REACTORS
330
C
102
}
330
C
100
AcDbDictionary
281
     1
  3
Standard
350
65
  0
DICTIONARY
  5
29
102
{ACAD_REACTORS
330
C
102
}
330
C
100
AcDbDictionary
281
     1
  3
2dWireframe
350
2F
  3
Basic
350
2E
  3
Brighten
350
35
  3
ColorChange
350
39
  3
Conceptual
350
32
  3
Dim
350
34
  3
EdgeColorOff
350
41
  3
Facepattern
350
38
  3
Flat
350
2A
  3
FlatWithEdges
350
2B
  3
Gouraud
350
2C
  3
GouraudWithEdges
350
2D
  3
Hidden
350
31
  3
JitterOff
350
3F
  3
Linepattern
350
37
  3
OverhangOff
350
40
  3
Realistic
350
33
  3
Shaded
350
3E
  3
Shaded with edges
350
3D
  3
Shades of Gray
350
3A
  3
Sketchy
350
3B
  3
Thicken
350
36
  3
Wireframe
350
30
  3
X-Ray
350
3C
  0
XRECORD
  5
273
102
{ACAD_REACTORS
330
C
102
}
330
C
100
AcDbXrecord
280
     1
 90
        1
330
65
  0
DICTIONARY
  5
7B
102
{ACAD_REACTORS
330
C
102
}
330
C
100
AcDbDictionary
281
     1
  3
CANNOSCALE
350
80
  3
CMLEADERSTYLE
350
7D
  3
CTABLESTYLE
350
7C
  3
CVIEWDETAILSTYLE
350
7E
  3
CVIEWSECTIONSTYLE
350
7F
  3
XCLIPFRAME
350
81
  0
DICTIONARY
  5
265
102
{ACAD_REACTORS
330
C
102
}
330
C
100
AcDbDictionary
281
     1
  3
DRAWING_TOOL
350
269
  3
REVIT_CATEGORY_MAPPING
350
267
  3
REVIT_SUB_CATEGORY_MAPPING
350
268
  3
REVIT_TYPE_MAPPING
350
266
  0
SORTENTSTABLE
  5
26B
102
{ACAD_REACTORS
330
26A
102
}
330
26A
100
AcDbSortentsTable
330
70
  0
ACDBDETAILVIEWSTYLE
  5
6B
102
{ACAD_XDICTIONARY
360
2A9
102
}
102
{ACAD_REACTORS
330
6A
102
}
330
6A
100
AcDbModelDocViewStyle
 70
     0
  3
Imperial24
290
     0
100
AcDbDetailViewStyle
 70
     0
 71
     0
 90
        3
 71
     1
340
55
 62
   256
 40
0.24
340
0
 62
   256
 40
0.24
300

 40
0.36
280
     3
 71
     2
340
5D
 90
       25
 62
   256
 71
     3
340
55
 62
   256
 40
0.24
 90
        1
 40
0.75
 90
        1
300
%<\AcVar ViewType \f "%tc1">% %<\AcVar ViewDetailId>%\PSCALE %<\AcVar ViewScale \f "%sn">%
 71
     4
340
5D
 90
       25
 62
   256
340
5D
 90
       25
 62
   256
280
     0
  0
LAYOUT
  5
6F
102
{ACAD_REACTORS
330
62
102
}
330
62
100
AcDbPlotSettings
  1

  2

  4

  6

 40
0.0
 41
0.0
 42
0.0
 43
0.0
 44
0.0
 45
0.0
 46
0.0
 47
0.0
 48
0.0
 49
0.0
140
0.0
141
0.0
142
1.0
143
1.0
 70
   688
 72
     0
 73
     0
 74
     5
  7

 75
    16
147
1.0
 76
     0
 77
     2
 78
   300
148
0.0
149
0.0
100
AcDbLayout
  1
Layout1
 70
     1
 71
     1
 10
0.0
 20
0.0
 11
12.0
 21
9.0
 12
0.0
 22
0.0
 32
0.0
 14
0.0
 24
0.0
 34
0.0
 15
0.0
 25
0.0
 35
0.0
146
0.0
 13
0.0
 23
0.0
 33
0.0
 16
1.0
 26
0.0
 36
0.0
 17
0.0
 27
1.0
 37
0.0
 76
     0
330
6C
  0
LAYOUT
  5
77
102
{ACAD_REACTORS
330
62
102
}
330
62
100
AcDbPlotSettings
  1

  2

  4

  6

 40
0.0
 41
0.0
 42
0.0
 43
0.0
 44
0.0
 45
0.0
 46
0.0
 47
0.0
 48
0.0
 49
0.0
140
0.0
141
0.0
142
1.0
143
1.0
 70
   688
 72
     0
 73
     0
 74
     5
  7

 75
    16
147
1.0
 76
     0
 77
     2
 78
   300
148
0.0
149
0.0
100
AcDbLayout
  1
Layout2
 70
     1
 71
     2
 10
0.0
 20
0.0
 11
12.0
 21
9.0
 12
0.0
 22
0.0
 32
0.0
 14
0.0
 24
0.0
 34
0.0
 15
0.0
 25
0.0
 35
0.0
146
0.0
 13
0.0
 23
0.0
 33
0.0
 16
1.0
 26
0.0
 36
0.0
 17
0.0
 27
1.0
 37
0.0
 76
     0
330
74
  0
LAYOUT
  5
73
102
{ACAD_REACTORS
330
62
102
}
330
62
100
AcDbPlotSettings
  1

  2

  4

  6

 40
0.0
 41
0.0
 42
0.0
 43
0.0
 44
0.0
 45
0.0
 46
0.0
 47
0.0
 48
0.0
 49
0.0
140
0.0
141
0.0
142
1.0
143
1.0
 70
  1712
 72
     0
 73
     0
 74
     0
  7

 75
     0
147
1.0
 76
     0
 77
     2
 78
   300
148
0.0
149
0.0
100
AcDbLayout
  1
Model
 70
     1
 71
     0
 10
0.0
 20
0.0
 11
12.0
 21
9.0
 12
0.0
 22
0.0
 32
0.0
 14
0.0
 24
0.0
 34
0.0
 15
0.0
 25
0.0
 35
0.0
146
0.0
 13
0.0
 23
0.0
 33
0.0
 16
1.0
 26
0.0
 36
0.0
 17
0.0
 27
1.0
 37
0.0
 76
     0
330
70
  0
MATERIAL
  5
19
102
{ACAD_XDICTIONARY
360
1A
102
}
102
{ACAD_REACTORS
330
10
102
}
330
10
100
AcDbMaterial
  1
ByBlock
 72
     0
 43
0.0208333333333333
 43
0.0
 43
0.0
 43
0.0
 43
0.0
 43
0.0208333333333333
 43
0.0
 43
0.0
 43
0.0
 43
0.0
 43
1.0
 43
0.0
 43
0.0
 43
0.0
 43
0.0
 43
1.0
 77
     0
 47
0.0208333333333333
 47
0.0
 47
0.0
 47
0.0
 47
0.0
 47
0.0208333333333333
 47
0.0
 47
0.0
 47
0.0
 47
0.0
 47
1.0
 47
0.0
 47
0.0
 47
0.0
 47
0.0
 47
1.0
171
     0
 49
0.0208333333333333
 49
0.0
 49
0.0
 49
0.0
 49
0.0
 49
0.0208333333333333
 49
0.0
 49
0.0
 49
0.0
 49
0.0
 49
1.0
 49
0.0
 49
0.0
 49
0.0
 49
0.0
 49
1.0
175
     0
142
0.0208333333333333
142
0.0
142
0.0
142
0.0
142
0.0
142
0.0208333333333333
142
0.0
142
0.0
142
0.0
142
0.0
142
1.0
142
0.0
142
0.0
142
0.0
142
0.0
142
1.0
179
     0
144
0.0208333333333333
144
0.0
144
0.0
144
0.0
144
0.0
144
0.0208333333333333
144
0.0
144
0.0
144
0.0
144
0.0
144
1.0
144
0.0
144
0.0
144
0.0
144
0.0
144
1.0
147
0.0208333333333333
147
0.0
147
0.0
147
0.0
147
0.0
147
0.0208333333333333
147
0.0
147
0.0
147
0.0
147
0.0
147
1.0
147
0.0
147
0.0
147
0.0
147
0.0
147
1.0
  0
MATERIAL
  5
11
102
{ACAD_XDICTIONARY
360
12
102
}
102
{ACAD_REACTORS
330
10
102
}
330
10
100
AcDbMaterial
  1
ByLayer
 72
     0
 43
0.0208333333333333
 43
0.0
 43
0.0
 43
0.0
 43
0.0
 43
0.0208333333333333
 43
0.0
 43
0.0
 43
0.0
 43
0.0
 43
1.0
 43
0.0
 43
0.0
 43
0.0
 43
0.0
 43
1.0
 77
     0
 47
0.0208333333333333
 47
0.0
 47
0.0
 47
0.0
 47
0.0
 47
0.0208333333333333
 47
0.0
 47
0.0
 47
0.0
 47
0.0
 47
1.0
 47
0.0
 47
0.0
 47
0.0
 47
0.0
 47
1.0
171
     0
 49
0.0208333333333333
 49
0.0
 49
0.0
 49
0.0
 49
0.0
 49
0.0208333333333333
 49
0.0
 49
0.0
 49
0.0
 49
0.0
 49
1.0
 49
0.0
 49
0.0
 49
0.0
 49
0.0
 49
1.0
175
     0
142
0.0208333333333333
142
0.0
142
0.0
142
0.0
142
0.0
142
0.0208333333333333
142
0.0
142
0.0
142
0.0
142
0.0
142
1.0
142
0.0
142
0.0
142
0.0
142
0.0
142
1.0
179
     0
144
0.0208333333333333
144
0.0
144
0.0
144
0.0
144
0.0
144
0.0208333333333333
144
0.0
144
0.0
144
0.0
144
0.0
144
1.0
144
0.0
144
0.0
144
0.0
144
0.0
144
1.0
147
0.0208333333333333
147
0.0
147
0.0
147
0.0
147
0.0
147
0.0208333333333333
147
0.0
147
0.0
147
0.0
147
0.0
147
1.0
147
0.0
147
0.0
147
0.0
147
0.0
147
1.0
  0
MATERIAL
  5
21
102
{ACAD_XDICTIONARY
360
22
102
}
102
{ACAD_REACTORS
330
10
102
}
330
10
100
AcDbMaterial
  1
Global
 72
     0
 43
0.0208333333333333
 43
0.0
 43
0.0
 43
0.0
 43
0.0
 43
0.0208333333333333
 43
0.0
 43
0.0
 43
0.0
 43
0.0
 43
1.0
 43
0.0
 43
0.0
 43
0.0
 43
0.0
 43
1.0
 77
     0
 47
0.0208333333333333
 47
0.0
 47
0.0
 47
0.0
 47
0.0
 47
0.0208333333333333
 47
0.0
 47
0.0
 47
0.0
 47
0.0
 47
1.0
 47
0.0
 47
0.0
 47
0.0
 47
0.0
 47
1.0
171
     0
 49
0.0208333333333333
 49
0.0
 49
0.0
 49
0.0
 49
0.0
 49
0.0208333333333333
 49
0.0
 49
0.0
 49
0.0
 49
0.0
 49
1.0
 49
0.0
 49
0.0
 49
0.0
 49
0.0
 49
1.0
175
     0
142
0.0208333333333333
142
0.0
142
0.0
142
0.0
142
0.0
142
0.0208333333333333
142
0.0
142
0.0
142
0.0
142
0.0
142
1.0
142
0.0
142
0.0
142
0.0
142
0.0
142
1.0
179
     0
144
0.0208333333333333
144
0.0
144
0.0
144
0.0
144
0.0
144
0.0208333333333333
144
0.0
144
0.0
144
0.0
144
0.0
144
1.0
144
0.0
144
0.0
144
0.0
144
0.0
144
1.0
147
0.0208333333333333
147
0.0
147
0.0
147
0.0
147
0.0
147
0.0208333333333333
147
0.0
147
0.0
147
0.0
147
0.0
147
1.0
147
0.0
147
0.0
147
0.0
147
0.0
147
1.0
  0
MLEADERSTYLE
  5
67
102
{ACAD_XDICTIONARY
360
2A5
102
}
102
{ACAD_REACTORS
330
66
102
}
330
66
100
AcDbMLeaderStyle
170
     2
171
     1
172
     0
 90
        2
 40
0.0
 41
0.0
173
     1
 91
-1056964608
340
5B
 92
       -2
290
     1
 42
0.09
291
     1
 43
0.36
  3
Standard
 44
0.18
300

342
55
174
     1
178
     6
175
     1
176
     0
 93
-1056964608
 45
0.18
292
     0
297
     0
 46
0.18
 94
-1056964608
 47
1.0
 49
1.0
140
1.0
293
     1
141
0.0
294
     1
177
     0
142
1.0
295
     0
296
     0
143
0.125
1001
ACAD_MLEADERVER
1070
     2
  0
MLINESTYLE
  5
60
102
{ACAD_REACTORS
330
5F
102
}
330
5F
100
AcDbMlineStyle
  2
STANDARD
 70
     0
  3

 62
   256
 51
90.0
 52
90.0
 71
     2
 49
0.5
 62
   256
  6
BYLAYER
 49
-0.5
 62
   256
  6
BYLAYER
  0
ACDBPLACEHOLDER
  5
F
102
{ACAD_REACTORS
330
E
102
}
330
E
  0
SCALE
  5
43
102
{ACAD_REACTORS
330
42
102
}
330
42
100
AcDbScale
 70
     0
300
1:1
140
1.0
141
1.0
290
     1
  0
SCALE
  5
44
102
{ACAD_REACTORS
330
42
102
}
330
42
100
AcDbScale
 70
     0
300
1/128" = 1'-0"
140
0.0078125
141
12.0
290
     0
  0
SCALE
  5
45
102
{ACAD_REACTORS
330
42
102
}
330
42
100
AcDbScale
 70
     0
300
1/64" = 1'-0"
140
0.015625
141
12.0
290
     0
  0
SCALE
  5
46
102
{ACAD_REACTORS
330
42
102
}
330
42
100
AcDbScale
 70
     0
300
1/32" = 1'-0"
140
0.03125
141
12.0
290
     0
  0
SCALE
  5
47
102
{ACAD_REACTORS
330
42
102
}
330
42
100
AcDbScale
 70
     0
300
1/16" = 1'-0"
140
0.0625
141
12.0
290
     0
  0
SCALE
  5
48
102
{ACAD_REACTORS
330
42
102
}
330
42
100
AcDbScale
 70
     0
300
3/32" = 1'-0"
140
0.09375
141
12.0
290
     0
  0
SCALE
  5
49
102
{ACAD_REACTORS
330
42
102
}
330
42
100
AcDbScale
 70
     0
300
1/8" = 1'-0"
140
0.125
141
12.0
290
     0
  0
SCALE
  5
4A
102
{ACAD_REACTORS
330
42
102
}
330
42
100
AcDbScale
 70
     0
300
3/16" = 1'-0"
140
0.1875
141
12.0
290
     0
  0
SCALE
  5
4B
102
{ACAD_REACTORS
330
42
102
}
330
42
100
AcDbScale
 70
     0
300
1/4" = 1'-0"
140
0.25
141
12.0
290
     0
  0
SCALE
  5
4C
102
{ACAD_REACTORS
330
42
102
}
330
42
100
AcDbScale
 70
     0
300
3/8" = 1'-0"
140
0.375
141
12.0
290
     0
  0
SCALE
  5
4D
102
{ACAD_REACTORS
330
42
102
}
330
42
100
AcDbScale
 70
     0
300
1/2" = 1'-0"
140
0.5
141
12.0
290
     0
  0
SCALE
  5
4E
102
{ACAD_REACTORS
330
42
102
}
330
42
100
AcDbScale
 70
     0
300
3/4" = 1'-0"
140
0.75
141
12.0
290
     0
  0
SCALE
  5
4F
102
{ACAD_REACTORS
330
42
102
}
330
42
100
AcDbScale
 70
     0
300
1" = 1'-0"
140
1.0
141
12.0
290
     0
  0
SCALE
  5
50
102
{ACAD_REACTORS
330
42
102
}
330
42
100
AcDbScale
 70
     0
300
1-1/2" = 1'-0"
140
1.5
141
12.0
290
     0
  0
SCALE
  5
51
102
{ACAD_REACTORS
330
42
102
}
330
42
100
AcDbScale
 70
     0
300
3" = 1'-0"
140
3.0
141
12.0
290
     0
  0
SCALE
  5
52
102
{ACAD_REACTORS
330
42
102
}
330
42
100
AcDbScale
 70
     0
300
6" = 1'-0"
140
6.0
141
12.0
290
     0
  0
SCALE
  5
53
102
{ACAD_REACTORS
330
42
102
}
330
42
100
AcDbScale
 70
     0
300
1'-0" = 1'-0"
140
12.0
141
12.0
290
     0
  0
ACDBSECTIONVIEWSTYLE
  5
69
102
{ACAD_XDICTIONARY
360
2A7
102
}
102
{ACAD_REACTORS
330
68
102
}
330
68
100
AcDbModelDocViewStyle
 70
     0
  3
Imperial24
290
     0
100
AcDbSectionViewStyle
 70
     0
 71
     0
 90
       78
 71
     1
340
55
 62
   256
 40
0.24
340
0
340
0
 62
   256
 40
0.24
300
I, O, Q, S, X, Z
 40
0.48
 90
        3
 40
0.18
 90
        1
 71
     2
340
5D
 90
       25
 62
   256
340
5D
 90
       50
 62
   256
 40
0.24
 40
0.0
 40
0.24
 71
     3
340
55
 62
   256
 40
0.24
 90
        1
 40
0.75
 90
        1
300
%<\AcVar ViewType \f "%tc1">% %<\AcVar ViewSectionStartId>%-%<\AcVar ViewSectionEndId>%\PSCALE %<\AcVar ViewScale \f "%sn">%
 71
     4
 62
   256
 62
   257
300
ANSI31
 40
1.0
 90
        0
290
     0
290
     0
 90
        6
 40
0.0
 40
1.570796326794896
 40
0.2617993877991494
 40
1.308996938995747
 40
-0.2617993877991494
 40
1.832595714594046
  0
TABLESTYLE
  5
65
102
{ACAD_XDICTIONARY
360
26E
102
}
102
{ACAD_REACTORS
330
64
102
}
330
64
100
AcDbTableStyle
  3
Standard
 70
     0
 71
     0
 40
0.06
 41
0.06
280
     0
281
     0
  7
Standard
140
0.18
170
     2
 62
     0
 63
     7
283
     0
 90
      512
 91
        0
  1

274
    -2
284
     1
 64
     0
275
    -2
285
     1
 65
     0
276
    -2
286
     1
 66
     0
277
    -2
287
     1
 67
     0
278
    -2
288
     1
 68
     0
279
    -2
289
     1
 69
     0
  7
Standard
140
0.25
170
     5
 62
     0
 63
     7
283
     0
 90
      512
 91
        0
  1

274
    -2
284
     1
 64
     0
275
    -2
285
     1
 65
     0
276
    -2
286
     1
 66
     0
277
    -2
287
     1
 67
     0
278
    -2
288
     1
 68
     0
279
    -2
289
     1
 69
     0
  7
Standard
140
0.18
170
     5
 62
     0
 63
     7
283
     0
 90
      512
 91
        0
  1

274
    -2
284
     1
 64
     0
275
    -2
285
     1
 65
     0
276
    -2
286
     1
 66
     0
277
    -2
287
     1
 67
     0
278
    -2
288
     1
 68
     0
279
    -2
289
     1
 69
     0
  0
VISUALSTYLE
  5
2F
102
{ACAD_XDICTIONARY
360
27E
102
}
102
{ACAD_REACTORS
330
29
102
}
330
29
100
AcDbVisualStyle
  2
2dWireframe
 70
     4
 71
     0
 72
     2
 73
     0
 90
        0
 40
-0.6
 41
-30.0
 62
     5
 63
     7
421
 16777215
 74
     1
 91
        4
 64
     7
 65
   257
 75
     1
175
     1
 42
1.0
 92
        0
 66
   257
 43
1.0
 76
     1
 77
     6
 78
     2
 67
     7
 79
     5
170
     0
171
     0
290
     0
174
     0
 93
        1
 44
0.0
173
     0
291
     0
 45
0.0
1001
ACAD
1000
AcDbSavedByObjectVersion
1070
     0
  0
VISUALSTYLE
  5
2E
102
{ACAD_XDICTIONARY
360
27C
102
}
102
{ACAD_REACTORS
330
29
102
}
330
29
100
AcDbVisualStyle
  2
Basic
 70
     7
 71
     1
 72
     0
 73
     1
 90
        0
 40
-0.6
 41
-30.0
 62
     5
 63
     7
421
 16777215
 74
     0
 91
        4
 64
     7
 65
   257
 75
     1
175
     1
 42
1.0
 92
        8
 66
     7
 43
1.0
 76
     1
 77
     6
 78
     2
 67
     7
 79
     5
170
     0
171
     0
290
     0
174
     0
 93
        1
 44
0.0
173
     0
291
     1
 45
0.0
1001
ACAD
1000
AcDbSavedByObjectVersion
1070
     0
  0
VISUALSTYLE
  5
35
102
{ACAD_XDICTIONARY
360
28A
102
}
102
{ACAD_REACTORS
330
29
102
}
330
29
100
AcDbVisualStyle
  2
Brighten
 70
    12
 71
     2
 72
     2
 73
     0
 90
        0
 40
-0.6
 41
-30.0
 62
     5
 63
     7
421
 16777215
 74
     1
 91
        4
 64
     7
 65
   257
 75
     1
175
     1
 42
1.0
 92
        8
 66
     7
 43
1.0
 76
     1
 77
     6
 78
     2
 67
     7
 79
     5
170
     0
171
     0
290
     0
174
     0
 93
        1
 44
50.0
173
     0
291
     1
 45
0.0
1001
ACAD
1000
AcDbSavedByObjectVersion
1070
     0
  0
VISUALSTYLE
  5
39
102
{ACAD_XDICTIONARY
360
292
102
}
102
{ACAD_REACTORS
330
29
102
}
330
29
100
AcDbVisualStyle
  2
ColorChange
 70
    16
 71
     2
 72
     2
 73
     3
 90
        0
 40
-0.6
 41
-30.0
 62
     5
 63
     8
421
  8421504
 74
     1
 91
        4
 64
     7
 65
   257
 75
     1
175
     1
 42
1.0
 92
        8
 66
     8
424
  8421504
 43
1.0
 76
     1
 77
     6
 78
     2
 67
     7
 79
     5
170
     0
171
     0
290
     0
174
     0
 93
        1
 44
0.0
173
     0
291
     1
 45
0.0
1001
ACAD
1000
AcDbSavedByObjectVersion
1070
     0
  0
VISUALSTYLE
  5
32
102
{ACAD_XDICTIONARY
360
284
102
}
102
{ACAD_REACTORS
330
29
102
}
330
29
100
AcDbVisualStyle
  2
Conceptual
 70
     9
 71
     3
 72
     2
 73
     0
 90
        0
 40
-0.6
 41
-30.0
 62
     5
 63
     7
421
 16777215
 74
     2
 91
        2
 64
     7
 65
   257
 75
     1
175
     1
 42
179.0
 92
        8
 66
     7
 43
1.0
 76
     1
 77
     6
 78
     2
 67
     7
 79
     3
170
     0
171
     0
290
     0
174
     0
 93
        1
 44
0.0
173
     0
291
     0
 45
0.0
1001
ACAD
1000
AcDbSavedByObjectVersion
1070
     0
  0
VISUALSTYLE
  5
34
102
{ACAD_XDICTIONARY
360
288
102
}
102
{ACAD_REACTORS
330
29
102
}
330
29
100
AcDbVisualStyle
  2
Dim
 70
    11
 71
     2
 72
     2
 73
     0
 90
        0
 40
-0.6
 41
-30.0
 62
     5
 63
     7
421
 16777215
 74
     1
 91
        4
 64
     7
 65
   257
 75
     1
175
     1
 42
1.0
 92
        8
 66
     7
 43
1.0
 76
     1
 77
     6
 78
     2
 67
     7
 79
     5
170
     0
171
     0
290
     0
174
     0
 93
        1
 44
-50.0
173
     0
291
     1
 45
0.0
1001
ACAD
1000
AcDbSavedByObjectVersion
1070
     0
  0
VISUALSTYLE
  5
41
102
{ACAD_XDICTIONARY
360
2A2
102
}
102
{ACAD_REACTORS
330
29
102
}
330
29
100
AcDbVisualStyle
  2
EdgeColorOff
 70
    22
 71
     2
 72
     2
 73
     0
 90
        0
 40
-0.6
 41
-30.0
 62
     5
 63
     7
421
 16777215
 74
     1
 91
        4
 64
     7
 65
   257
 75
     1
175
     1
 42
1.0
 92
        8
 66
     7
 43
1.0
 76
     1
 77
     6
 78
     2
 67
     7
 79
     5
170
     0
171
     0
290
     0
174
     0
 93
        1
 44
0.0
173
     0
291
     1
 45
0.0
1001
ACAD
1000
AcDbSavedByObjectVersion
1070
     0
  0
VISUALSTYLE
  5
38
102
{ACAD_XDICTIONARY
360
290
102
}
102
{ACAD_REACTORS
330
29
102
}
330
29
100
AcDbVisualStyle
  2
Facepattern
 70
    15
 71
     2
 72
     2
 73
     0
 90
        0
 40
-0.6
 41
-30.0
 62
     5
 63
     7
421
 16777215
 74
     1
 91
        4
 64
     7
 65
   257
 75
     1
175
     1
 42
1.0
 92
        8
 66
     7
 43
1.0
 76
     1
 77
     6
 78
     2
 67
     7
 79
     5
170
     0
171
     0
290
     0
174
     0
 93
        1
 44
0.0
173
     0
291
     1
 45
0.0
1001
ACAD
1000
AcDbSavedByObjectVersion
1070
     0
  0
VISUALSTYLE
  5
2A
102
{ACAD_XDICTIONARY
360
274
102
}
102
{ACAD_REACTORS
330
29
102
}
330
29
100
AcDbVisualStyle
  2
Flat
 70
     0
 71
     2
 72
     1
 73
     1
 90
        2
 40
-0.6
 41
30.0
 62
     5
 63
     7
421
 16777215
 74
     0
 91
        0
 64
     7
 65
   257
 75
     1
175
     1
 42
1.0
 92
        8
 66
     7
 43
1.0
 76
     1
 77
     6
 78
     2
 67
     7
 79
     5
170
     0
171
     0
290
     0
174
     0
 93
       13
 44
0.0
173
     0
291
     1
 45
0.0
1001
ACAD
1000
AcDbSavedByObjectVersion
1070
     0
  0
VISUALSTYLE
  5
2B
102
{ACAD_XDICTIONARY
360
276
102
}
102
{ACAD_REACTORS
330
29
102
}
330
29
100
AcDbVisualStyle
  2
FlatWithEdges
 70
     1
 71
     2
 72
     1
 73
     1
 90
        2
 40
-0.6
 41
30.0
 62
     5
 63
     7
421
 16777215
 74
     1
 91
        0
 64
     7
 65
   257
 75
     1
175
     1
 42
1.0
 92
        0
 66
   257
 43
1.0
 76
     1
 77
     6
 78
     2
 67
     7
 79
     5
170
     0
171
     0
290
     0
174
     0
 93
       13
 44
0.0
173
     0
291
     1
 45
0.0
1001
ACAD
1000
AcDbSavedByObjectVersion
1070
     0
  0
VISUALSTYLE
  5
2C
102
{ACAD_XDICTIONARY
360
278
102
}
102
{ACAD_REACTORS
330
29
102
}
330
29
100
AcDbVisualStyle
  2
Gouraud
 70
     2
 71
     2
 72
     2
 73
     1
 90
        2
 40
-0.6
 41
30.0
 62
     5
 63
     7
421
 16777215
 74
     0
 91
        0
 64
     7
 65
   257
 75
     1
175
     1
 42
1.0
 92
        0
 66
     7
 43
1.0
 76
     1
 77
     6
 78
     2
 67
     7
 79
     5
170
     0
171
     0
290
     0
174
     0
 93
       13
 44
0.0
173
     0
291
     1
 45
0.0
1001
ACAD
1000
AcDbSavedByObjectVersion
1070
     0
  0
VISUALSTYLE
  5
2D
102
{ACAD_XDICTIONARY
360
27A
102
}
102
{ACAD_REACTORS
330
29
102
}
330
29
100
AcDbVisualStyle
  2
GouraudWithEdges
 70
     3
 71
     2
 72
     2
 73
     1
 90
        2
 40
-0.6
 41
30.0
 62
     5
 63
     7
421
 16777215
 74
     1
 91
        0
 64
     7
 65
   257
 75
     1
175
     1
 42
1.0
 92
        0
 66
   257
 43
1.0
 76
     1
 77
     6
 78
     2
 67
     7
 79
     5
170
     0
171
     0
290
     0
174
     0
 93
       13
 44
0.0
173
     0
291
     1
 45
0.0
1001
ACAD
1000
AcDbSavedByObjectVersion
1070
     0
  0
VISUALSTYLE
  5
31
102
{ACAD_XDICTIONARY
360
282
102
}
102
{ACAD_REACTORS
330
29
102
}
330
29
100
AcDbVisualStyle
  2
Hidden
 70
     6
 71
     1
 72
     2
 73
     2
 90
        0
 40
-0.6
 41
-30.0
 62
     5
 63
     7
421
 16777215
 74
     2
 91
        2
 64
     7
 65
   257
 75
     2
175
     1
 42
40.0
 92
        0
 66
   257
 43
1.0
 76
     1
 77
     6
 78
     2
 67
     7
 79
     3
170
     0
171
     0
290
     0
174
     0
 93
        1
 44
0.0
173
     0
291
     0
 45
0.0
1001
ACAD
1000
AcDbSavedByObjectVersion
1070
     0
  0
VISUALSTYLE
  5
3F
102
{ACAD_XDICTIONARY
360
29E
102
}
102
{ACAD_REACTORS
330
29
102
}
330
29
100
AcDbVisualStyle
  2
JitterOff
 70
    20
 71
     2
 72
     2
 73
     0
 90
        0
 40
-0.6
 41
-30.0
 62
     5
 63
     7
421
 16777215
 74
     1
 91
        4
 64
     7
 65
   257
 75
     1
175
     1
 42
1.0
 92
       10
 66
     7
 43
1.0
 76
     1
 77
     6
 78
     2
 67
     7
 79
     5
170
     0
171
     0
290
     0
174
     0
 93
        1
 44
0.0
173
     0
291
     1
 45
0.0
1001
ACAD
1000
AcDbSavedByObjectVersion
1070
     0
  0
VISUALSTYLE
  5
37
102
{ACAD_XDICTIONARY
360
28E
102
}
102
{ACAD_REACTORS
330
29
102
}
330
29
100
AcDbVisualStyle
  2
Linepattern
 70
    14
 71
     2
 72
     2
 73
     0
 90
        0
 40
-0.6
 41
-30.0
 62
     5
 63
     7
421
 16777215
 74
     1
 91
        4
 64
     7
 65
   257
 75
     7
175
     7
 42
1.0
 92
        8
 66
     7
 43
1.0
 76
     1
 77
     6
 78
     2
 67
     7
 79
     5
170
     0
171
     0
290
     0
174
     0
 93
        1
 44
0.0
173
     0
291
     1
 45
0.0
1001
ACAD
1000
AcDbSavedByObjectVersion
1070
     0
  0
VISUALSTYLE
  5
40
102
{ACAD_XDICTIONARY
360
2A0
102
}
102
{ACAD_REACTORS
330
29
102
}
330
29
100
AcDbVisualStyle
  2
OverhangOff
 70
    21
 71
     2
 72
     2
 73
     0
 90
        0
 40
-0.6
 41
-30.0
 62
     5
 63
     7
421
 16777215
 74
     1
 91
        4
 64
     7
 65
   257
 75
     1
175
     1
 42
1.0
 92
        9
 66
     7
 43
1.0
 76
     1
 77
     6
 78
     2
 67
     7
 79
     5
170
     0
171
     0
290
     0
174
     0
 93
        1
 44
0.0
173
     0
291
     1
 45
0.0
1001
ACAD
1000
AcDbSavedByObjectVersion
1070
     0
  0
VISUALSTYLE
  5
33
102
{ACAD_XDICTIONARY
360
286
102
}
102
{ACAD_REACTORS
330
29
102
}
330
29
100
AcDbVisualStyle
  2
Realistic
 70
     8
 71
     2
 72
     3
 73
     0
 90
        2
 40
-0.6
 41
30.0
 62
     5
 63
     7
421
 16777215
 74
     0
 91
        0
 64
     7
 65
   257
 75
     1
175
     1
 42
1.0
 92
        8
 66
   257
 43
1.0
 76
     1
 77
     6
 78
     2
 67
     7
 79
     3
170
     0
171
     0
290
     0
174
     0
 93
       13
 44
0.0
173
     0
291
     0
 45
0.0
1001
ACAD
1000
AcDbSavedByObjectVersion
1070
     0
  0
VISUALSTYLE
  5
3E
102
{ACAD_XDICTIONARY
360
29C
102
}
102
{ACAD_REACTORS
330
29
102
}
330
29
100
AcDbVisualStyle
  2
Shaded
 70
    27
 71
     2
 72
     2
 73
     1
 90
        2
 40
-0.6
 41
30.0
 62
     5
 63
     7
421
 16777215
 74
     0
 91
        4
 64
     7
 65
   257
 75
     1
175
     1
 42
1.0
 92
        8
 66
   257
 43
1.0
 76
     1
 77
     6
 78
     2
 67
     8
425
  7895160
 79
     3
170
     0
171
     0
290
     0
174
     0
 93
        5
 44
0.0
173
     0
291
     0
 45
0.0
1001
ACAD
1000
AcDbSavedByObjectVersion
1070
     0
  0
VISUALSTYLE
  5
3D
102
{ACAD_XDICTIONARY
360
29A
102
}
102
{ACAD_REACTORS
330
29
102
}
330
29
100
AcDbVisualStyle
  2
Shaded with edges
 70
    26
 71
     2
 72
     2
 73
     1
 90
        2
 40
-0.6
 41
30.0
 62
     5
 63
     7
421
 16777215
 74
     1
 91
        2
 64
     7
 65
   257
 75
     2
175
     1
 42
1.0
 92
        8
 66
   257
 43
1.0
 76
     1
 77
     6
 78
     2
 67
     7
 79
     3
170
     0
171
     0
290
     0
174
     0
 93
        5
 44
0.0
173
     0
291
     0
 45
0.0
1001
ACAD
1000
AcDbSavedByObjectVersion
1070
     0
  0
VISUALSTYLE
  5
3A
102
{ACAD_XDICTIONARY
360
294
102
}
102
{ACAD_REACTORS
330
29
102
}
330
29
100
AcDbVisualStyle
  2
Shades of Gray
 70
    23
 71
     2
 72
     2
 73
     3
 90
        0
 40
-0.6
 41
-30.0
 62
     5
 63
     7
421
 16777215
 74
     2
 91
        2
 64
     7
 65
     7
 75
     1
175
     1
 42
40.0
 92
        8
 66
     7
 43
1.0
 76
     1
 77
     6
 78
     2
 67
     7
 79
     3
170
     0
171
     0
290
     0
174
     0
 93
        1
 44
0.0
173
     0
291
     0
 45
0.0
1001
ACAD
1000
AcDbSavedByObjectVersion
1070
     0
  0
VISUALSTYLE
  5
3B
102
{ACAD_XDICTIONARY
360
296
102
}
102
{ACAD_REACTORS
330
29
102
}
330
29
100
AcDbVisualStyle
  2
Sketchy
 70
    24
 71
     1
 72
     2
 73
     2
 90
        0
 40
-0.6
 41
-30.0
 62
     5
 63
     7
421
 16777215
 74
     2
 91
        2
 64
     7
 65
     7
 75
     1
175
     1
 42
40.0
 92
       11
 66
     7
 43
1.0
 76
     1
 77
     6
 78
     2
 67
     7
 79
     6
170
     0
171
     0
290
     0
174
     0
 93
        1
 44
0.0
173
     0
291
     0
 45
0.0
1001
ACAD
1000
AcDbSavedByObjectVersion
1070
     0
  0
VISUALSTYLE
  5
36
102
{ACAD_XDICTIONARY
360
28C
102
}
102
{ACAD_REACTORS
330
29
102
}
330
29
100
AcDbVisualStyle
  2
Thicken
 70
    13
 71
     2
 72
     2
 73
     0
 90
        0
 40
-0.6
 41
-30.0
 62
     5
 63
     7
421
 16777215
 74
     1
 91
        4
 64
     7
 65
   257
 75
     1
175
     1
 42
1.0
 92
       12
 66
     7
 43
1.0
 76
     1
 77
     6
 78
     2
 67
     7
 79
     5
170
     0
171
     0
290
     0
174
     0
 93
        1
 44
0.0
173
     0
291
     1
 45
0.0
1001
ACAD
1000
AcDbSavedByObjectVersion
1070
     0
  0
VISUALSTYLE
  5
30
102
{ACAD_XDICTIONARY
360
280
102
}
102
{ACAD_REACTORS
330
29
102
}
330
29
100
AcDbVisualStyle
  2
Wireframe
 70
     5
 71
     0
 72
     2
 73
     0
 90
        0
 40
-0.6
 41
-30.0
 62
     5
 63
     7
421
 16777215
 74
     1
 91
        4
 64
     7
 65
   257
 75
     1
175
     1
 42
1.0
 92
        0
 66
   257
 43
1.0
 76
     1
 77
     6
 78
     2
 67
     7
 79
     3
170
     0
171
     0
290
     0
174
     0
 93
        1
 44
0.0
173
     0
291
     0
 45
0.0
1001
ACAD
1000
AcDbSavedByObjectVersion
1070
     0
  0
VISUALSTYLE
  5
3C
102
{ACAD_XDICTIONARY
360
298
102
}
102
{ACAD_REACTORS
330
29
102
}
330
29
100
AcDbVisualStyle
  2
X-Ray
 70
    25
 71
     2
 72
     2
 73
     1
 90
        1
 40
0.5
 41
-30.0
 62
     5
 63
     7
421
 16777215
 74
     1
 91
        0
 64
     7
 65
   257
 75
     1
175
     1
 42
1.0
 92
        8
 66
     7
 43
1.0
 76
     1
 77
     6
 78
     2
 67
     7
 79
     3
170
     0
171
     0
290
     0
174
     0
 93
       13
 44
0.0
173
     0
291
     0
 45
0.0
1001
ACAD
1000
AcDbSavedByObjectVersion
1070
     0
  0
DICTIONARYVAR
  5
80
102
{ACAD_REACTORS
330
7B
102
}
330
7B
100
DictionaryVariables
280
     0
  1
1:1
  0
DICTIONARYVAR
  5
7D
102
{ACAD_REACTORS
330
7B
102
}
330
7B
100
DictionaryVariables
280
     0
  1
STANDARD
  0
DICTIONARYVAR
  5
7C
102
{ACAD_REACTORS
330
7B
102
}
330
7B
100
DictionaryVariables
280
     0
  1
STANDARD
  0
DICTIONARYVAR
  5
7E
102
{ACAD_REACTORS
330
7B
102
}
330
7B
100
DictionaryVariables
280
     0
  1
Imperial24
  0
DICTIONARYVAR
  5
7F
102
{ACAD_REACTORS
330
7B
102
}
330
7B
100
DictionaryVariables
280
     0
  1
Imperial24
  0
DICTIONARYVAR
  5
81
102
{ACAD_REACTORS
330
7B
102
}
330
7B
100
DictionaryVariables
280
     0
  1
2
  0
XRECORD
  5
269
102
{ACAD_REACTORS
330
265
102
}
330
265
100
AcDbXrecord
280
     1
  1
BUILDING_ID
  1
2208A9 RDEX SHELTERSEAL
  1
FLOOR_ID
  1
769623
  0
XRECORD
  5
267
102
{ACAD_REACTORS
330
265
102
}
330
265
100
AcDbXrecord
280
     1
  1
-2000051
  1
Lines
  1
-2000280
  1
Title Blocks
  1
-2000300
  1
Text Notes
  1
-2002000
  1
Detail Items
  1
-2005022
  1
Multi-Category Tags
  0
XRECORD
  5
268
102
{ACAD_REACTORS
330
265
102
}
330
265
100
AcDbXrecord
280
     1
  1
330672
  1
(ARDEX) Lines 03
  1
330683
  1
(ARDEX) Lines 01 Grey Dashed
  1
335606
  1
(ARDEX) Lines 01
  1
335610
  1
(ARDEX) Lines 03
  1
335612
  1
(ARDEX) Lines 05
  1
352413
  1
(ARDEX) Lines 08 Dashed
  1
605361
  1
(ARDEX) Lines 05 Grey
  1
614484
  1
(ARDEX) Lines 07
  0
XRECORD
  5
266
102
{ACAD_REACTORS
330
265
102
}
330
265
100
AcDbXrecord
280
     1
  1
343954
  1
Text : (ARDEX) 2mm Text
  1
517035
  1
(ARDEX) Lining - Various : Pipe
  1
605262
  1
(ARDEX) Lines : RA 030 Sealant
  1
613215
  1
(ARDEX) Tag Multi Category Left Align : Detail components
  1
677308
  1
(ARDEX) Landscape Title block Weldtec Tanking : WPM 3000X
  1
707735
  1
(ARDEX) Waterstop : (ARDEX) Water Stop
  1
708929
  1
(ARDEX) Lines : WPM240 Primer
  1
753775
  1
(ARDEX) Lining - Various : Concrete Wall 150
  1
766022
  1
(ARDEX) Fillet : (ARDEX) Fillet 12mm
  1
767633
  1
(ARDEX) Lines : WPM 3000X DPM Membrane
  1
767708
  1
(ARDEX) Lines : WPM 3000X DPM Underflashing Membrane
  0
DICTIONARY
  5
2A9
330
6B
100
AcDbDictionary
280
     1
281
     1
  3
ACAD_XREC_ROUNDTRIP
360
2AA
  0
DICTIONARY
  5
1A
330
19
100
AcDbDictionary
280
     1
281
     1
  3
BUMPTILE
360
1C
  3
DIFFUSETILE
360
1B
  3
OPACITYTILE
360
1F
  3
REFLECTIONTILE
360
1E
  3
REFRACTIONTILE
360
20
  3
SPECULARTILE
360
1D
  0
DICTIONARY
  5
12
330
11
100
AcDbDictionary
280
     1
281
     1
  3
BUMPTILE
360
14
  3
DIFFUSETILE
360
13
  3
OPACITYTILE
360
17
  3
REFLECTIONTILE
360
16
  3
REFRACTIONTILE
360
18
  3
SPECULARTILE
360
15
  0
DICTIONARY
  5
22
330
21
100
AcDbDictionary
280
     1
281
     1
  3
BUMPTILE
360
24
  3
DIFFUSETILE
360
23
  3
OPACITYTILE
360
27
  3
REFLECTIONTILE
360
26
  3
REFRACTIONTILE
360
28
  3
SPECULARTILE
360
25
  0
DICTIONARY
  5
2A5
330
67
100
AcDbDictionary
280
     1
281
     1
  3
ACAD_XREC_ROUNDTRIP
360
2A6
  0
DICTIONARY
  5
2A7
330
69
100
AcDbDictionary
280
     1
281
     1
  3
ACAD_XREC_ROUNDTRIP
360
2A8
  0
DICTIONARY
  5
26E
330
65
100
AcDbDictionary
280
     1
281
     1
  3
ACAD_ROUNDTRIP_2008_TABLESTYLE_CELLSTYLEMAP
360
26F
  0
DICTIONARY
  5
27E
330
2F
100
AcDbDictionary
280
     1
281
     1
  3
ACAD_XREC_ROUNDTRIP
360
27F
  0
DICTIONARY
  5
27C
330
2E
100
AcDbDictionary
280
     1
281
     1
  3
ACAD_XREC_ROUNDTRIP
360
27D
  0
DICTIONARY
  5
28A
330
35
100
AcDbDictionary
280
     1
281
     1
  3
ACAD_XREC_ROUNDTRIP
360
28B
  0
DICTIONARY
  5
292
330
39
100
AcDbDictionary
280
     1
281
     1
  3
ACAD_XREC_ROUNDTRIP
360
293
  0
DICTIONARY
  5
284
330
32
100
AcDbDictionary
280
     1
281
     1
  3
ACAD_XREC_ROUNDTRIP
360
285
  0
DICTIONARY
  5
288
330
34
100
AcDbDictionary
280
     1
281
     1
  3
ACAD_XREC_ROUNDTRIP
360
289
  0
DICTIONARY
  5
2A2
330
41
100
AcDbDictionary
280
     1
281
     1
  3
ACAD_XREC_ROUNDTRIP
360
2A3
  0
DICTIONARY
  5
290
330
38
100
AcDbDictionary
280
     1
281
     1
  3
ACAD_XREC_ROUNDTRIP
360
291
  0
DICTIONARY
  5
274
330
2A
100
AcDbDictionary
280
     1
281
     1
  3
ACAD_XREC_ROUNDTRIP
360
275
  0
DICTIONARY
  5
276
330
2B
100
AcDbDictionary
280
     1
281
     1
  3
ACAD_XREC_ROUNDTRIP
360
277
  0
DICTIONARY
  5
278
330
2C
100
AcDbDictionary
280
     1
281
     1
  3
ACAD_XREC_ROUNDTRIP
360
279
  0
DICTIONARY
  5
27A
330
2D
100
AcDbDictionary
280
     1
281
     1
  3
ACAD_XREC_ROUNDTRIP
360
27B
  0
DICTIONARY
  5
282
330
31
100
AcDbDictionary
280
     1
281
     1
  3
ACAD_XREC_ROUNDTRIP
360
283
  0
DICTIONARY
  5
29E
330
3F
100
AcDbDictionary
280
     1
281
     1
  3
ACAD_XREC_ROUNDTRIP
360
29F
  0
DICTIONARY
  5
28E
330
37
100
AcDbDictionary
280
     1
281
     1
  3
ACAD_XREC_ROUNDTRIP
360
28F
  0
DICTIONARY
  5
2A0
330
40
100
AcDbDictionary
280
     1
281
     1
  3
ACAD_XREC_ROUNDTRIP
360
2A1
  0
DICTIONARY
  5
286
330
33
100
AcDbDictionary
280
     1
281
     1
  3
ACAD_XREC_ROUNDTRIP
360
287
  0
DICTIONARY
  5
29C
330
3E
100
AcDbDictionary
280
     1
281
     1
  3
ACAD_XREC_ROUNDTRIP
360
29D
  0
DICTIONARY
  5
29A
330
3D
100
AcDbDictionary
280
     1
281
     1
  3
ACAD_XREC_ROUNDTRIP
360
29B
  0
DICTIONARY
  5
294
330
3A
100
AcDbDictionary
280
     1
281
     1
  3
ACAD_XREC_ROUNDTRIP
360
295
  0
DICTIONARY
  5
296
330
3B
100
AcDbDictionary
280
     1
281
     1
  3
ACAD_XREC_ROUNDTRIP
360
297
  0
DICTIONARY
  5
28C
330
36
100
AcDbDictionary
280
     1
281
     1
  3
ACAD_XREC_ROUNDTRIP
360
28D
  0
DICTIONARY
  5
280
330
30
100
AcDbDictionary
280
     1
281
     1
  3
ACAD_XREC_ROUNDTRIP
360
281
  0
DICTIONARY
  5
298
330
3C
100
AcDbDictionary
280
     1
281
     1
  3
ACAD_XREC_ROUNDTRIP
360
299
  0
XRECORD
  5
2AA
102
{ACAD_REACTORS
330
2A9
102
}
330
2A9
100
AcDbXrecord
280
     1
102
DISPLAYNAME
  1
Imperial24
102
FLAGS
 90
        0
  0
XRECORD
  5
1C
102
{ACAD_REACTORS
330
1A
102
}
330
1A
100
AcDbXrecord
280
     1
270
     1
271
     1
  0
XRECORD
  5
1B
102
{ACAD_REACTORS
330
1A
102
}
330
1A
100
AcDbXrecord
280
     1
270
     1
271
     1
  0
XRECORD
  5
1F
102
{ACAD_REACTORS
330
1A
102
}
330
1A
100
AcDbXrecord
280
     1
270
     1
271
     1
  0
XRECORD
  5
1E
102
{ACAD_REACTORS
330
1A
102
}
330
1A
100
AcDbXrecord
280
     1
270
     1
271
     1
  0
XRECORD
  5
20
102
{ACAD_REACTORS
330
1A
102
}
330
1A
100
AcDbXrecord
280
     1
270
     1
271
     1
  0
XRECORD
  5
1D
102
{ACAD_REACTORS
330
1A
102
}
330
1A
100
AcDbXrecord
280
     1
270
     1
271
     1
  0
XRECORD
  5
14
102
{ACAD_REACTORS
330
12
102
}
330
12
100
AcDbXrecord
280
     1
270
     1
271
     1
  0
XRECORD
  5
13
102
{ACAD_REACTORS
330
12
102
}
330
12
100
AcDbXrecord
280
     1
270
     1
271
     1
  0
XRECORD
  5
17
102
{ACAD_REACTORS
330
12
102
}
330
12
100
AcDbXrecord
280
     1
270
     1
271
     1
  0
XRECORD
  5
16
102
{ACAD_REACTORS
330
12
102
}
330
12
100
AcDbXrecord
280
     1
270
     1
271
     1
  0
XRECORD
  5
18
102
{ACAD_REACTORS
330
12
102
}
330
12
100
AcDbXrecord
280
     1
270
     1
271
     1
  0
XRECORD
  5
15
102
{ACAD_REACTORS
330
12
102
}
330
12
100
AcDbXrecord
280
     1
270
     1
271
     1
  0
XRECORD
  5
24
102
{ACAD_REACTORS
330
22
102
}
330
22
100
AcDbXrecord
280
     1
270
     1
271
     1
  0
XRECORD
  5
23
102
{ACAD_REACTORS
330
22
102
}
330
22
100
AcDbXrecord
280
     1
270
     1
271
     1
  0
XRECORD
  5
27
102
{ACAD_REACTORS
330
22
102
}
330
22
100
AcDbXrecord
280
     1
270
     1
271
     1
  0
XRECORD
  5
26
102
{ACAD_REACTORS
330
22
102
}
330
22
100
AcDbXrecord
280
     1
270
     1
271
     1
  0
XRECORD
  5
28
102
{ACAD_REACTORS
330
22
102
}
330
22
100
AcDbXrecord
280
     1
270
     1
271
     1
  0
XRECORD
  5
25
102
{ACAD_REACTORS
330
22
102
}
330
22
100
AcDbXrecord
280
     1
270
     1
271
     1
  0
XRECORD
  5
2A6
102
{ACAD_REACTORS
330
2A5
102
}
330
2A5
100
AcDbXrecord
280
     1
102
ACAD_ROUNDTRIP_2012_MLEADER_STYLE
298
     1
  0
XRECORD
  5
2A8
102
{ACAD_REACTORS
330
2A7
102
}
330
2A7
100
AcDbXrecord
280
     1
102
DISPLAYNAME
  1
Imperial24
102
FLAGS
 90
        0
  0
CELLSTYLEMAP
  5
26F
102
{ACAD_REACTORS
330
26E
102
}
330
26E
100
AcDbCellStyleMap
 90
        3
300
CELLSTYLE
  1
TABLEFORMAT_BEGIN
 90
        5
170
     1
 91
        0
 92
    32768
 62
   257
 93
        1
300
CONTENTFORMAT
  1
CONTENTFORMAT_BEGIN
 90
        0
 91
        0
 92
      512
 93
        0
300

 40
0.0
140
1.0
 94
        5
 62
     0
340
55
144
0.25
309
CONTENTFORMAT_END
171
     0
 94
        0
309
TABLEFORMAT_END
  1
CELLSTYLE_BEGIN
 90
        1
 91
        1
300
_TITLE
309
CELLSTYLE_END
300
CELLSTYLE
  1
TABLEFORMAT_BEGIN
 90
        5
170
     1
 91
        0
 92
        0
 62
   257
 93
        1
300
CONTENTFORMAT
  1
CONTENTFORMAT_BEGIN
 90
        0
 91
        0
 92
      512
 93
        0
300

 40
0.0
140
1.0
 94
        5
 62
     0
340
55
144
0.18
309
CONTENTFORMAT_END
171
     0
 94
        0
309
TABLEFORMAT_END
  1
CELLSTYLE_BEGIN
 90
        2
 91
        1
300
_HEADER
309
CELLSTYLE_END
300
CELLSTYLE
  1
TABLEFORMAT_BEGIN
 90
        5
170
     1
 91
        0
 92
        0
 62
   257
 93
        1
300
CONTENTFORMAT
  1
CONTENTFORMAT_BEGIN
 90
        0
 91
        0
 92
      512
 93
        0
300

 40
0.0
140
1.0
 94
        2
 62
     0
340
55
144
0.18
309
CONTENTFORMAT_END
171
     0
 94
        0
309
TABLEFORMAT_END
  1
CELLSTYLE_BEGIN
 90
        3
 91
        2
300
_DATA
309
CELLSTYLE_END
  0
XRECORD
  5
27F
102
{ACAD_REACTORS
330
27E
102
}
330
27E
100
AcDbXrecord
280
     1
102
RTVSPost2010Prop28
280
     1
102
RTVSPost2010PropOp28
 70
     1
102
RTVSPost2010Prop29
280
     1
102
RTVSPost2010PropOp29
 70
     1
102
RTVSPost2010Prop30
280
     0
102
RTVSPost2010PropOp30
 70
     1
102
RTVSPost2010Prop31
280
     0
102
RTVSPost2010PropOp31
 70
     1
102
RTVSPost2010Prop32
280
     0
102
RTVSPost2010PropOp32
 70
     1
102
RTVSPost2010Prop33
280
     0
102
RTVSPost2010PropOp33
 70
     1
102
RTVSPost2010Prop34
280
     0
102
RTVSPost2010PropOp34
 70
     1
102
RTVSPost2010Prop35
280
     0
102
RTVSPost2010PropOp35
 70
     1
102
RTVSPost2010Prop36
280
     0
102
RTVSPost2010PropOp36
 70
     1
102
RTVSPost2010Prop37
 90
       50
102
RTVSPost2010PropOp37
 70
     1
102
RTVSPost2010Prop38
140
0.0
102
RTVSPost2010PropOp38
 70
     1
102
RTVSPost2010Prop39
140
1.0
102
RTVSPost2010PropOp39
 70
     1
102
RTVSPost2010Prop40
 90
        0
102
RTVSPost2010PropOp40
 70
     1
102
RTVSPost2010Prop41ColorIndex
 90
       18
102
RTVSPost2010Prop41ColorRGB
 90
        0
102
RTVSPost2010PropOp41
 70
     1
102
RTVSPost2010Prop42
 90
       50
102
RTVSPost2010PropOp42
 70
     1
102
RTVSPost2010Prop43
 90
        3
102
RTVSPost2010PropOp43
 70
     1
102
RTVSPost2010Prop44ColorIndex
 90
        5
102
RTVSPost2010Prop44ColorRGB
 90
      255
102
RTVSPost2010PropOp44
 70
     1
102
RTVSPost2010Prop45
280
     0
102
RTVSPost2010PropOp45
 70
     1
102
RTVSPost2010Prop46
 90
       50
102
RTVSPost2010PropOp46
 70
     1
102
RTVSPost2010Prop47
 90
       50
102
RTVSPost2010PropOp47
 70
     1
102
RTVSPost2010Prop48
 90
       50
102
RTVSPost2010PropOp48
 70
     1
102
RTVSPost2010Prop49
280
     0
102
RTVSPost2010PropOp49
 70
     1
102
RTVSPost2010Prop50
 90
       50
102
RTVSPost2010PropOp50
 70
     1
102
RTVSPost2010Prop51ColorIndex
 90
      256
102
RTVSPost2010Prop51ColorRGB
 90
-16777216
102
RTVSPost2010PropOp51
 70
     0
102
RTVSPost2010Prop52
140
1.0
102
RTVSPost2010PropOp52
 70
     0
102
RTVSPost2010Prop53
 90
        2
102
RTVSPost2010PropOp53
 70
     1
102
RTVSPost2010Prop54
  1
strokes_ogs.tif
102
RTVSPost2010PropOp54
 70
     1
102
RTVSPost2010Prop55
280
     0
102
RTVSPost2010PropOp55
 70
     1
102
RTVSPost2010Prop56
140
1.0
102
RTVSPost2010PropOp56
 70
     1
102
RTVSPost2010Prop57
140
1.0
102
RTVSPost2010PropOp57
 70
     1
102
RTVSPropertyOp0
 70
     1
102
RTVSPropertyOp1
 70
     1
102
RTVSPropertyOp2
 70
     1
102
RTVSPropertyOp3
 70
     1
102
RTVSPropertyOp4
 70
     1
102
RTVSPropertyOp5
 70
     1
102
RTVSPropertyOp6
 70
     1
102
RTVSPropertyOp7
 70
     1
102
RTVSPropertyOp8
 70
     1
102
RTVSPropertyOp9
 70
     1
102
RTVSPropertyOp10
 70
     1
102
RTVSPropertyOp11
 70
     1
102
RTVSPropertyOp12
 70
     1
102
RTVSPropertyOp13
 70
     1
102
RTVSPropertyOp14
 70
     1
102
RTVSPropertyOp15
 70
     1
102
RTVSPropertyOp16
 70
     1
102
RTVSPropertyOp17
 70
     1
102
RTVSPropertyOp18
 70
     1
102
RTVSPropertyOp19
 70
     1
102
RTVSPropertyOp20
 70
     1
102
RTVSPropertyOp21
 70
     1
102
RTVSPropertyOp22
 70
     1
102
RTVSPropertyOp23
 70
     1
102
RTVSPropertyOp24
 70
     1
102
RTVSPropertyOp25
 70
     1
102
RTVSPropertyOp26
 70
     1
102
RTVSPropertyOp27
 70
     1
102
RTVSPropertyOp28
 70
     1
102
RTVSPropertyOp29
 70
     1
102
RTVSPropertyOp30
 70
     1
102
RTVSPropertyOp31
 70
     1
102
RTVSPropertyOp32
 70
     1
102
RTVSPropertyOp33
 70
     1
102
RTVSPropertyOp34
 70
     1
102
RTVSPropertyOp35
 70
     1
102
RTVSPropertyOp36
 70
     1
102
RTVSPropertyOp37
 70
     1
102
RTVSPropertyOp38
 70
     1
102
RTVSPropertyOp39
 70
     1
102
RTVSPropertyOp40
 70
     1
102
RTVSPropertyOp41
 70
     1
102
RTVSPropertyOp42
 70
     1
102
RTVSPropertyOp43
 70
     1
102
RTVSPropertyOp44
 70
     1
102
RTVSPropertyOp45
 70
     1
102
RTVSPropertyOp46
 70
     1
102
RTVSPropertyOp47
 70
     1
102
RTVSPropertyOp48
 70
     1
102
RTVSPropertyOp49
 70
     1
102
RTVSPropertyOp50
 70
     1
102
RTVSPropertyOp51
 70
     0
102
RTVSPropertyOp52
 70
     0
102
RTVSPropertyOp53
 70
     1
102
RTVSPropertyOp54
 70
     1
102
RTVSPropertyOp55
 70
     1
102
RTVSPropertyOp56
 70
     1
102
RTVSPropertyOp57
 70
     1
102
RTVSPropertyOp58
 70
     1
102
RTVSPropertyOp59
 70
     1
102
RTVSPropertyOp60
 70
     1
102
RTVSPropertyOp61
 70
     1
102
RTVSPropertyOp62
 70
     1
  0
XRECORD
  5
27D
102
{ACAD_REACTORS
330
27C
102
}
330
27C
100
AcDbXrecord
280
     1
102
RTVSPost2010Prop28
280
     0
102
RTVSPost2010PropOp28
 70
     1
102
RTVSPost2010Prop29
280
     1
102
RTVSPost2010PropOp29
 70
     1
102
RTVSPost2010Prop30
280
     1
102
RTVSPost2010PropOp30
 70
     1
102
RTVSPost2010Prop31
280
     0
102
RTVSPost2010PropOp31
 70
     1
102
RTVSPost2010Prop32
280
     0
102
RTVSPost2010PropOp32
 70
     1
102
RTVSPost2010Prop33
280
     0
102
RTVSPost2010PropOp33
 70
     1
102
RTVSPost2010Prop34
280
     0
102
RTVSPost2010PropOp34
 70
     1
102
RTVSPost2010Prop35
280
     0
102
RTVSPost2010PropOp35
 70
     1
102
RTVSPost2010Prop36
280
     0
102
RTVSPost2010PropOp36
 70
     1
102
RTVSPost2010Prop37
 90
       50
102
RTVSPost2010PropOp37
 70
     1
102
RTVSPost2010Prop38
140
0.0
102
RTVSPost2010PropOp38
 70
     1
102
RTVSPost2010Prop39
140
1.0
102
RTVSPost2010PropOp39
 70
     1
102
RTVSPost2010Prop40
 90
        0
102
RTVSPost2010PropOp40
 70
     1
102
RTVSPost2010Prop41ColorIndex
 90
       18
102
RTVSPost2010Prop41ColorRGB
 90
        0
102
RTVSPost2010PropOp41
 70
     1
102
RTVSPost2010Prop42
 90
       50
102
RTVSPost2010PropOp42
 70
     1
102
RTVSPost2010Prop43
 90
        3
102
RTVSPost2010PropOp43
 70
     1
102
RTVSPost2010Prop44ColorIndex
 90
        5
102
RTVSPost2010Prop44ColorRGB
 90
      255
102
RTVSPost2010PropOp44
 70
     1
102
RTVSPost2010Prop45
280
     0
102
RTVSPost2010PropOp45
 70
     1
102
RTVSPost2010Prop46
 90
       50
102
RTVSPost2010PropOp46
 70
     1
102
RTVSPost2010Prop47
 90
       50
102
RTVSPost2010PropOp47
 70
     1
102
RTVSPost2010Prop48
 90
       50
102
RTVSPost2010PropOp48
 70
     1
102
RTVSPost2010Prop49
280
     0
102
RTVSPost2010PropOp49
 70
     1
102
RTVSPost2010Prop50
 90
       50
102
RTVSPost2010PropOp50
 70
     1
102
RTVSPost2010Prop51ColorIndex
 90
      256
102
RTVSPost2010Prop51ColorRGB
 90
-16777216
102
RTVSPost2010PropOp51
 70
     0
102
RTVSPost2010Prop52
140
1.0
102
RTVSPost2010PropOp52
 70
     0
102
RTVSPost2010Prop53
 90
        2
102
RTVSPost2010PropOp53
 70
     1
102
RTVSPost2010Prop54
  1
strokes_ogs.tif
102
RTVSPost2010PropOp54
 70
     1
102
RTVSPost2010Prop55
280
     0
102
RTVSPost2010PropOp55
 70
     1
102
RTVSPost2010Prop56
140
1.0
102
RTVSPost2010PropOp56
 70
     1
102
RTVSPost2010Prop57
140
1.0
102
RTVSPost2010PropOp57
 70
     1
102
RTVSPropertyOp0
 70
     1
102
RTVSPropertyOp1
 70
     1
102
RTVSPropertyOp2
 70
     1
102
RTVSPropertyOp3
 70
     1
102
RTVSPropertyOp4
 70
     1
102
RTVSPropertyOp5
 70
     1
102
RTVSPropertyOp6
 70
     1
102
RTVSPropertyOp7
 70
     1
102
RTVSPropertyOp8
 70
     1
102
RTVSPropertyOp9
 70
     1
102
RTVSPropertyOp10
 70
     1
102
RTVSPropertyOp11
 70
     1
102
RTVSPropertyOp12
 70
     1
102
RTVSPropertyOp13
 70
     1
102
RTVSPropertyOp14
 70
     1
102
RTVSPropertyOp15
 70
     1
102
RTVSPropertyOp16
 70
     1
102
RTVSPropertyOp17
 70
     1
102
RTVSPropertyOp18
 70
     1
102
RTVSPropertyOp19
 70
     1
102
RTVSPropertyOp20
 70
     1
102
RTVSPropertyOp21
 70
     1
102
RTVSPropertyOp22
 70
     1
102
RTVSPropertyOp23
 70
     1
102
RTVSPropertyOp24
 70
     1
102
RTVSPropertyOp25
 70
     1
102
RTVSPropertyOp26
 70
     1
102
RTVSPropertyOp27
 70
     1
102
RTVSPropertyOp28
 70
     1
102
RTVSPropertyOp29
 70
     1
102
RTVSPropertyOp30
 70
     1
102
RTVSPropertyOp31
 70
     1
102
RTVSPropertyOp32
 70
     1
102
RTVSPropertyOp33
 70
     1
102
RTVSPropertyOp34
 70
     1
102
RTVSPropertyOp35
 70
     1
102
RTVSPropertyOp36
 70
     1
102
RTVSPropertyOp37
 70
     1
102
RTVSPropertyOp38
 70
     1
102
RTVSPropertyOp39
 70
     1
102
RTVSPropertyOp40
 70
     1
102
RTVSPropertyOp41
 70
     1
102
RTVSPropertyOp42
 70
     1
102
RTVSPropertyOp43
 70
     1
102
RTVSPropertyOp44
 70
     1
102
RTVSPropertyOp45
 70
     1
102
RTVSPropertyOp46
 70
     1
102
RTVSPropertyOp47
 70
     1
102
RTVSPropertyOp48
 70
     1
102
RTVSPropertyOp49
 70
     1
102
RTVSPropertyOp50
 70
     1
102
RTVSPropertyOp51
 70
     0
102
RTVSPropertyOp52
 70
     0
102
RTVSPropertyOp53
 70
     1
102
RTVSPropertyOp54
 70
     1
102
RTVSPropertyOp55
 70
     1
102
RTVSPropertyOp56
 70
     1
102
RTVSPropertyOp57
 70
     1
102
RTVSPropertyOp58
 70
     1
102
RTVSPropertyOp59
 70
     1
102
RTVSPropertyOp60
 70
     1
102
RTVSPropertyOp61
 70
     1
102
RTVSPropertyOp62
 70
     1
  0
XRECORD
  5
28B
102
{ACAD_REACTORS
330
28A
102
}
330
28A
100
AcDbXrecord
280
     1
102
RTVSPost2010Prop28
280
     0
102
RTVSPost2010PropOp28
 70
     1
102
RTVSPost2010Prop29
280
     1
102
RTVSPost2010PropOp29
 70
     1
102
RTVSPost2010Prop30
280
     1
102
RTVSPost2010PropOp30
 70
     1
102
RTVSPost2010Prop31
280
     0
102
RTVSPost2010PropOp31
 70
     1
102
RTVSPost2010Prop32
280
     0
102
RTVSPost2010PropOp32
 70
     1
102
RTVSPost2010Prop33
280
     0
102
RTVSPost2010PropOp33
 70
     1
102
RTVSPost2010Prop34
280
     0
102
RTVSPost2010PropOp34
 70
     1
102
RTVSPost2010Prop35
280
     0
102
RTVSPost2010PropOp35
 70
     1
102
RTVSPost2010Prop36
280
     0
102
RTVSPost2010PropOp36
 70
     1
102
RTVSPost2010Prop37
 90
       50
102
RTVSPost2010PropOp37
 70
     1
102
RTVSPost2010Prop38
140
0.0
102
RTVSPost2010PropOp38
 70
     1
102
RTVSPost2010Prop39
140
1.0
102
RTVSPost2010PropOp39
 70
     1
102
RTVSPost2010Prop40
 90
        0
102
RTVSPost2010PropOp40
 70
     1
102
RTVSPost2010Prop41ColorIndex
 90
       18
102
RTVSPost2010Prop41ColorRGB
 90
        0
102
RTVSPost2010PropOp41
 70
     1
102
RTVSPost2010Prop42
 90
       50
102
RTVSPost2010PropOp42
 70
     1
102
RTVSPost2010Prop43
 90
        3
102
RTVSPost2010PropOp43
 70
     1
102
RTVSPost2010Prop44ColorIndex
 90
        5
102
RTVSPost2010Prop44ColorRGB
 90
      255
102
RTVSPost2010PropOp44
 70
     1
102
RTVSPost2010Prop45
280
     0
102
RTVSPost2010PropOp45
 70
     1
102
RTVSPost2010Prop46
 90
       50
102
RTVSPost2010PropOp46
 70
     1
102
RTVSPost2010Prop47
 90
       50
102
RTVSPost2010PropOp47
 70
     1
102
RTVSPost2010Prop48
 90
       50
102
RTVSPost2010PropOp48
 70
     1
102
RTVSPost2010Prop49
280
     0
102
RTVSPost2010PropOp49
 70
     1
102
RTVSPost2010Prop50
 90
       50
102
RTVSPost2010PropOp50
 70
     1
102
RTVSPost2010Prop51ColorIndex
 90
      256
102
RTVSPost2010Prop51ColorRGB
 90
-16777216
102
RTVSPost2010PropOp51
 70
     0
102
RTVSPost2010Prop52
140
1.0
102
RTVSPost2010PropOp52
 70
     0
102
RTVSPost2010Prop53
 90
        2
102
RTVSPost2010PropOp53
 70
     1
102
RTVSPost2010Prop54
  1
strokes_ogs.tif
102
RTVSPost2010PropOp54
 70
     1
102
RTVSPost2010Prop55
280
     0
102
RTVSPost2010PropOp55
 70
     1
102
RTVSPost2010Prop56
140
1.0
102
RTVSPost2010PropOp56
 70
     1
102
RTVSPost2010Prop57
140
1.0
102
RTVSPost2010PropOp57
 70
     1
102
RTVSPropertyOp0
 70
     1
102
RTVSPropertyOp1
 70
     1
102
RTVSPropertyOp2
 70
     1
102
RTVSPropertyOp3
 70
     1
102
RTVSPropertyOp4
 70
     1
102
RTVSPropertyOp5
 70
     1
102
RTVSPropertyOp6
 70
     1
102
RTVSPropertyOp7
 70
     1
102
RTVSPropertyOp8
 70
     1
102
RTVSPropertyOp9
 70
     1
102
RTVSPropertyOp10
 70
     1
102
RTVSPropertyOp11
 70
     1
102
RTVSPropertyOp12
 70
     1
102
RTVSPropertyOp13
 70
     1
102
RTVSPropertyOp14
 70
     1
102
RTVSPropertyOp15
 70
     1
102
RTVSPropertyOp16
 70
     1
102
RTVSPropertyOp17
 70
     1
102
RTVSPropertyOp18
 70
     1
102
RTVSPropertyOp19
 70
     1
102
RTVSPropertyOp20
 70
     1
102
RTVSPropertyOp21
 70
     1
102
RTVSPropertyOp22
 70
     1
102
RTVSPropertyOp23
 70
     1
102
RTVSPropertyOp24
 70
     1
102
RTVSPropertyOp25
 70
     1
102
RTVSPropertyOp26
 70
     1
102
RTVSPropertyOp27
 70
     1
102
RTVSPropertyOp28
 70
     1
102
RTVSPropertyOp29
 70
     1
102
RTVSPropertyOp30
 70
     1
102
RTVSPropertyOp31
 70
     1
102
RTVSPropertyOp32
 70
     1
102
RTVSPropertyOp33
 70
     1
102
RTVSPropertyOp34
 70
     1
102
RTVSPropertyOp35
 70
     1
102
RTVSPropertyOp36
 70
     1
102
RTVSPropertyOp37
 70
     1
102
RTVSPropertyOp38
 70
     1
102
RTVSPropertyOp39
 70
     1
102
RTVSPropertyOp40
 70
     1
102
RTVSPropertyOp41
 70
     1
102
RTVSPropertyOp42
 70
     1
102
RTVSPropertyOp43
 70
     1
102
RTVSPropertyOp44
 70
     1
102
RTVSPropertyOp45
 70
     1
102
RTVSPropertyOp46
 70
     1
102
RTVSPropertyOp47
 70
     1
102
RTVSPropertyOp48
 70
     1
102
RTVSPropertyOp49
 70
     1
102
RTVSPropertyOp50
 70
     1
102
RTVSPropertyOp51
 70
     0
102
RTVSPropertyOp52
 70
     0
102
RTVSPropertyOp53
 70
     1
102
RTVSPropertyOp54
 70
     1
102
RTVSPropertyOp55
 70
     1
102
RTVSPropertyOp56
 70
     1
102
RTVSPropertyOp57
 70
     1
102
RTVSPropertyOp58
 70
     1
102
RTVSPropertyOp59
 70
     1
102
RTVSPropertyOp60
 70
     1
102
RTVSPropertyOp61
 70
     1
102
RTVSPropertyOp62
 70
     1
  0
XRECORD
  5
293
102
{ACAD_REACTORS
330
292
102
}
330
292
100
AcDbXrecord
280
     1
102
RTVSPost2010Prop28
280
     0
102
RTVSPost2010PropOp28
 70
     1
102
RTVSPost2010Prop29
280
     1
102
RTVSPost2010PropOp29
 70
     1
102
RTVSPost2010Prop30
280
     1
102
RTVSPost2010PropOp30
 70
     1
102
RTVSPost2010Prop31
280
     0
102
RTVSPost2010PropOp31
 70
     1
102
RTVSPost2010Prop32
280
     0
102
RTVSPost2010PropOp32
 70
     1
102
RTVSPost2010Prop33
280
     0
102
RTVSPost2010PropOp33
 70
     1
102
RTVSPost2010Prop34
280
     0
102
RTVSPost2010PropOp34
 70
     1
102
RTVSPost2010Prop35
280
     0
102
RTVSPost2010PropOp35
 70
     1
102
RTVSPost2010Prop36
280
     0
102
RTVSPost2010PropOp36
 70
     1
102
RTVSPost2010Prop37
 90
       50
102
RTVSPost2010PropOp37
 70
     1
102
RTVSPost2010Prop38
140
0.0
102
RTVSPost2010PropOp38
 70
     1
102
RTVSPost2010Prop39
140
1.0
102
RTVSPost2010PropOp39
 70
     1
102
RTVSPost2010Prop40
 90
        0
102
RTVSPost2010PropOp40
 70
     1
102
RTVSPost2010Prop41ColorIndex
 90
       18
102
RTVSPost2010Prop41ColorRGB
 90
        0
102
RTVSPost2010PropOp41
 70
     1
102
RTVSPost2010Prop42
 90
       50
102
RTVSPost2010PropOp42
 70
     1
102
RTVSPost2010Prop43
 90
        3
102
RTVSPost2010PropOp43
 70
     1
102
RTVSPost2010Prop44ColorIndex
 90
        5
102
RTVSPost2010Prop44ColorRGB
 90
      255
102
RTVSPost2010PropOp44
 70
     1
102
RTVSPost2010Prop45
280
     0
102
RTVSPost2010PropOp45
 70
     1
102
RTVSPost2010Prop46
 90
       50
102
RTVSPost2010PropOp46
 70
     1
102
RTVSPost2010Prop47
 90
       50
102
RTVSPost2010PropOp47
 70
     1
102
RTVSPost2010Prop48
 90
       50
102
RTVSPost2010PropOp48
 70
     1
102
RTVSPost2010Prop49
280
     0
102
RTVSPost2010PropOp49
 70
     1
102
RTVSPost2010Prop50
 90
       50
102
RTVSPost2010PropOp50
 70
     1
102
RTVSPost2010Prop51ColorIndex
 90
      256
102
RTVSPost2010Prop51ColorRGB
 90
-16777216
102
RTVSPost2010PropOp51
 70
     0
102
RTVSPost2010Prop52
140
1.0
102
RTVSPost2010PropOp52
 70
     0
102
RTVSPost2010Prop53
 90
        2
102
RTVSPost2010PropOp53
 70
     1
102
RTVSPost2010Prop54
  1
strokes_ogs.tif
102
RTVSPost2010PropOp54
 70
     1
102
RTVSPost2010Prop55
280
     0
102
RTVSPost2010PropOp55
 70
     1
102
RTVSPost2010Prop56
140
1.0
102
RTVSPost2010PropOp56
 70
     1
102
RTVSPost2010Prop57
140
1.0
102
RTVSPost2010PropOp57
 70
     1
102
RTVSPropertyOp0
 70
     1
102
RTVSPropertyOp1
 70
     1
102
RTVSPropertyOp2
 70
     1
102
RTVSPropertyOp3
 70
     1
102
RTVSPropertyOp4
 70
     1
102
RTVSPropertyOp5
 70
     1
102
RTVSPropertyOp6
 70
     1
102
RTVSPropertyOp7
 70
     1
102
RTVSPropertyOp8
 70
     1
102
RTVSPropertyOp9
 70
     1
102
RTVSPropertyOp10
 70
     1
102
RTVSPropertyOp11
 70
     1
102
RTVSPropertyOp12
 70
     1
102
RTVSPropertyOp13
 70
     1
102
RTVSPropertyOp14
 70
     1
102
RTVSPropertyOp15
 70
     1
102
RTVSPropertyOp16
 70
     1
102
RTVSPropertyOp17
 70
     1
102
RTVSPropertyOp18
 70
     1
102
RTVSPropertyOp19
 70
     1
102
RTVSPropertyOp20
 70
     1
102
RTVSPropertyOp21
 70
     1
102
RTVSPropertyOp22
 70
     1
102
RTVSPropertyOp23
 70
     1
102
RTVSPropertyOp24
 70
     1
102
RTVSPropertyOp25
 70
     1
102
RTVSPropertyOp26
 70
     1
102
RTVSPropertyOp27
 70
     1
102
RTVSPropertyOp28
 70
     1
102
RTVSPropertyOp29
 70
     1
102
RTVSPropertyOp30
 70
     1
102
RTVSPropertyOp31
 70
     1
102
RTVSPropertyOp32
 70
     1
102
RTVSPropertyOp33
 70
     1
102
RTVSPropertyOp34
 70
     1
102
RTVSPropertyOp35
 70
     1
102
RTVSPropertyOp36
 70
     1
102
RTVSPropertyOp37
 70
     1
102
RTVSPropertyOp38
 70
     1
102
RTVSPropertyOp39
 70
     1
102
RTVSPropertyOp40
 70
     1
102
RTVSPropertyOp41
 70
     1
102
RTVSPropertyOp42
 70
     1
102
RTVSPropertyOp43
 70
     1
102
RTVSPropertyOp44
 70
     1
102
RTVSPropertyOp45
 70
     1
102
RTVSPropertyOp46
 70
     1
102
RTVSPropertyOp47
 70
     1
102
RTVSPropertyOp48
 70
     1
102
RTVSPropertyOp49
 70
     1
102
RTVSPropertyOp50
 70
     1
102
RTVSPropertyOp51
 70
     0
102
RTVSPropertyOp52
 70
     0
102
RTVSPropertyOp53
 70
     1
102
RTVSPropertyOp54
 70
     1
102
RTVSPropertyOp55
 70
     1
102
RTVSPropertyOp56
 70
     1
102
RTVSPropertyOp57
 70
     1
102
RTVSPropertyOp58
 70
     1
102
RTVSPropertyOp59
 70
     1
102
RTVSPropertyOp60
 70
     1
102
RTVSPropertyOp61
 70
     1
102
RTVSPropertyOp62
 70
     1
  0
XRECORD
  5
285
102
{ACAD_REACTORS
330
284
102
}
330
284
100
AcDbXrecord
280
     1
102
RTVSPost2010Prop28
280
     0
102
RTVSPost2010PropOp28
 70
     1
102
RTVSPost2010Prop29
280
     1
102
RTVSPost2010PropOp29
 70
     1
102
RTVSPost2010Prop30
280
     1
102
RTVSPost2010PropOp30
 70
     1
102
RTVSPost2010Prop31
280
     0
102
RTVSPost2010PropOp31
 70
     1
102
RTVSPost2010Prop32
280
     0
102
RTVSPost2010PropOp32
 70
     1
102
RTVSPost2010Prop33
280
     0
102
RTVSPost2010PropOp33
 70
     1
102
RTVSPost2010Prop34
280
     0
102
RTVSPost2010PropOp34
 70
     1
102
RTVSPost2010Prop35
280
     0
102
RTVSPost2010PropOp35
 70
     1
102
RTVSPost2010Prop36
280
     0
102
RTVSPost2010PropOp36
 70
     1
102
RTVSPost2010Prop37
 90
       50
102
RTVSPost2010PropOp37
 70
     1
102
RTVSPost2010Prop38
140
0.0
102
RTVSPost2010PropOp38
 70
     1
102
RTVSPost2010Prop39
140
1.0
102
RTVSPost2010PropOp39
 70
     1
102
RTVSPost2010Prop40
 90
        0
102
RTVSPost2010PropOp40
 70
     1
102
RTVSPost2010Prop41ColorIndex
 90
       18
102
RTVSPost2010Prop41ColorRGB
 90
        0
102
RTVSPost2010PropOp41
 70
     1
102
RTVSPost2010Prop42
 90
       50
102
RTVSPost2010PropOp42
 70
     1
102
RTVSPost2010Prop43
 90
        3
102
RTVSPost2010PropOp43
 70
     1
102
RTVSPost2010Prop44ColorIndex
 90
        5
102
RTVSPost2010Prop44ColorRGB
 90
      255
102
RTVSPost2010PropOp44
 70
     1
102
RTVSPost2010Prop45
280
     0
102
RTVSPost2010PropOp45
 70
     1
102
RTVSPost2010Prop46
 90
       50
102
RTVSPost2010PropOp46
 70
     1
102
RTVSPost2010Prop47
 90
       50
102
RTVSPost2010PropOp47
 70
     1
102
RTVSPost2010Prop48
 90
       50
102
RTVSPost2010PropOp48
 70
     1
102
RTVSPost2010Prop49
280
     0
102
RTVSPost2010PropOp49
 70
     1
102
RTVSPost2010Prop50
 90
       50
102
RTVSPost2010PropOp50
 70
     1
102
RTVSPost2010Prop51ColorIndex
 90
      256
102
RTVSPost2010Prop51ColorRGB
 90
-16777216
102
RTVSPost2010PropOp51
 70
     0
102
RTVSPost2010Prop52
140
1.0
102
RTVSPost2010PropOp52
 70
     0
102
RTVSPost2010Prop53
 90
        2
102
RTVSPost2010PropOp53
 70
     1
102
RTVSPost2010Prop54
  1
strokes_ogs.tif
102
RTVSPost2010PropOp54
 70
     1
102
RTVSPost2010Prop55
280
     0
102
RTVSPost2010PropOp55
 70
     1
102
RTVSPost2010Prop56
140
1.0
102
RTVSPost2010PropOp56
 70
     1
102
RTVSPost2010Prop57
140
1.0
102
RTVSPost2010PropOp57
 70
     1
102
RTVSPropertyOp0
 70
     1
102
RTVSPropertyOp1
 70
     1
102
RTVSPropertyOp2
 70
     1
102
RTVSPropertyOp3
 70
     1
102
RTVSPropertyOp4
 70
     1
102
RTVSPropertyOp5
 70
     1
102
RTVSPropertyOp6
 70
     1
102
RTVSPropertyOp7
 70
     1
102
RTVSPropertyOp8
 70
     1
102
RTVSPropertyOp9
 70
     1
102
RTVSPropertyOp10
 70
     1
102
RTVSPropertyOp11
 70
     1
102
RTVSPropertyOp12
 70
     1
102
RTVSPropertyOp13
 70
     1
102
RTVSPropertyOp14
 70
     1
102
RTVSPropertyOp15
 70
     1
102
RTVSPropertyOp16
 70
     1
102
RTVSPropertyOp17
 70
     1
102
RTVSPropertyOp18
 70
     1
102
RTVSPropertyOp19
 70
     1
102
RTVSPropertyOp20
 70
     1
102
RTVSPropertyOp21
 70
     1
102
RTVSPropertyOp22
 70
     1
102
RTVSPropertyOp23
 70
     1
102
RTVSPropertyOp24
 70
     1
102
RTVSPropertyOp25
 70
     1
102
RTVSPropertyOp26
 70
     1
102
RTVSPropertyOp27
 70
     1
102
RTVSPropertyOp28
 70
     1
102
RTVSPropertyOp29
 70
     1
102
RTVSPropertyOp30
 70
     1
102
RTVSPropertyOp31
 70
     1
102
RTVSPropertyOp32
 70
     1
102
RTVSPropertyOp33
 70
     1
102
RTVSPropertyOp34
 70
     1
102
RTVSPropertyOp35
 70
     1
102
RTVSPropertyOp36
 70
     1
102
RTVSPropertyOp37
 70
     1
102
RTVSPropertyOp38
 70
     1
102
RTVSPropertyOp39
 70
     1
102
RTVSPropertyOp40
 70
     1
102
RTVSPropertyOp41
 70
     1
102
RTVSPropertyOp42
 70
     1
102
RTVSPropertyOp43
 70
     1
102
RTVSPropertyOp44
 70
     1
102
RTVSPropertyOp45
 70
     1
102
RTVSPropertyOp46
 70
     1
102
RTVSPropertyOp47
 70
     1
102
RTVSPropertyOp48
 70
     1
102
RTVSPropertyOp49
 70
     1
102
RTVSPropertyOp50
 70
     1
102
RTVSPropertyOp51
 70
     0
102
RTVSPropertyOp52
 70
     0
102
RTVSPropertyOp53
 70
     1
102
RTVSPropertyOp54
 70
     1
102
RTVSPropertyOp55
 70
     1
102
RTVSPropertyOp56
 70
     1
102
RTVSPropertyOp57
 70
     1
102
RTVSPropertyOp58
 70
     1
102
RTVSPropertyOp59
 70
     1
102
RTVSPropertyOp60
 70
     1
102
RTVSPropertyOp61
 70
     1
102
RTVSPropertyOp62
 70
     1
  0
XRECORD
  5
289
102
{ACAD_REACTORS
330
288
102
}
330
288
100
AcDbXrecord
280
     1
102
RTVSPost2010Prop28
280
     0
102
RTVSPost2010PropOp28
 70
     1
102
RTVSPost2010Prop29
280
     1
102
RTVSPost2010PropOp29
 70
     1
102
RTVSPost2010Prop30
280
     1
102
RTVSPost2010PropOp30
 70
     1
102
RTVSPost2010Prop31
280
     0
102
RTVSPost2010PropOp31
 70
     1
102
RTVSPost2010Prop32
280
     0
102
RTVSPost2010PropOp32
 70
     1
102
RTVSPost2010Prop33
280
     0
102
RTVSPost2010PropOp33
 70
     1
102
RTVSPost2010Prop34
280
     0
102
RTVSPost2010PropOp34
 70
     1
102
RTVSPost2010Prop35
280
     0
102
RTVSPost2010PropOp35
 70
     1
102
RTVSPost2010Prop36
280
     0
102
RTVSPost2010PropOp36
 70
     1
102
RTVSPost2010Prop37
 90
       50
102
RTVSPost2010PropOp37
 70
     1
102
RTVSPost2010Prop38
140
0.0
102
RTVSPost2010PropOp38
 70
     1
102
RTVSPost2010Prop39
140
1.0
102
RTVSPost2010PropOp39
 70
     1
102
RTVSPost2010Prop40
 90
        0
102
RTVSPost2010PropOp40
 70
     1
102
RTVSPost2010Prop41ColorIndex
 90
       18
102
RTVSPost2010Prop41ColorRGB
 90
        0
102
RTVSPost2010PropOp41
 70
     1
102
RTVSPost2010Prop42
 90
       50
102
RTVSPost2010PropOp42
 70
     1
102
RTVSPost2010Prop43
 90
        3
102
RTVSPost2010PropOp43
 70
     1
102
RTVSPost2010Prop44ColorIndex
 90
        5
102
RTVSPost2010Prop44ColorRGB
 90
      255
102
RTVSPost2010PropOp44
 70
     1
102
RTVSPost2010Prop45
280
     0
102
RTVSPost2010PropOp45
 70
     1
102
RTVSPost2010Prop46
 90
       50
102
RTVSPost2010PropOp46
 70
     1
102
RTVSPost2010Prop47
 90
       50
102
RTVSPost2010PropOp47
 70
     1
102
RTVSPost2010Prop48
 90
       50
102
RTVSPost2010PropOp48
 70
     1
102
RTVSPost2010Prop49
280
     0
102
RTVSPost2010PropOp49
 70
     1
102
RTVSPost2010Prop50
 90
       50
102
RTVSPost2010PropOp50
 70
     1
102
RTVSPost2010Prop51ColorIndex
 90
      256
102
RTVSPost2010Prop51ColorRGB
 90
-16777216
102
RTVSPost2010PropOp51
 70
     0
102
RTVSPost2010Prop52
140
1.0
102
RTVSPost2010PropOp52
 70
     0
102
RTVSPost2010Prop53
 90
        2
102
RTVSPost2010PropOp53
 70
     1
102
RTVSPost2010Prop54
  1
strokes_ogs.tif
102
RTVSPost2010PropOp54
 70
     1
102
RTVSPost2010Prop55
280
     0
102
RTVSPost2010PropOp55
 70
     1
102
RTVSPost2010Prop56
140
1.0
102
RTVSPost2010PropOp56
 70
     1
102
RTVSPost2010Prop57
140
1.0
102
RTVSPost2010PropOp57
 70
     1
102
RTVSPropertyOp0
 70
     1
102
RTVSPropertyOp1
 70
     1
102
RTVSPropertyOp2
 70
     1
102
RTVSPropertyOp3
 70
     1
102
RTVSPropertyOp4
 70
     1
102
RTVSPropertyOp5
 70
     1
102
RTVSPropertyOp6
 70
     1
102
RTVSPropertyOp7
 70
     1
102
RTVSPropertyOp8
 70
     1
102
RTVSPropertyOp9
 70
     1
102
RTVSPropertyOp10
 70
     1
102
RTVSPropertyOp11
 70
     1
102
RTVSPropertyOp12
 70
     1
102
RTVSPropertyOp13
 70
     1
102
RTVSPropertyOp14
 70
     1
102
RTVSPropertyOp15
 70
     1
102
RTVSPropertyOp16
 70
     1
102
RTVSPropertyOp17
 70
     1
102
RTVSPropertyOp18
 70
     1
102
RTVSPropertyOp19
 70
     1
102
RTVSPropertyOp20
 70
     1
102
RTVSPropertyOp21
 70
     1
102
RTVSPropertyOp22
 70
     1
102
RTVSPropertyOp23
 70
     1
102
RTVSPropertyOp24
 70
     1
102
RTVSPropertyOp25
 70
     1
102
RTVSPropertyOp26
 70
     1
102
RTVSPropertyOp27
 70
     1
102
RTVSPropertyOp28
 70
     1
102
RTVSPropertyOp29
 70
     1
102
RTVSPropertyOp30
 70
     1
102
RTVSPropertyOp31
 70
     1
102
RTVSPropertyOp32
 70
     1
102
RTVSPropertyOp33
 70
     1
102
RTVSPropertyOp34
 70
     1
102
RTVSPropertyOp35
 70
     1
102
RTVSPropertyOp36
 70
     1
102
RTVSPropertyOp37
 70
     1
102
RTVSPropertyOp38
 70
     1
102
RTVSPropertyOp39
 70
     1
102
RTVSPropertyOp40
 70
     1
102
RTVSPropertyOp41
 70
     1
102
RTVSPropertyOp42
 70
     1
102
RTVSPropertyOp43
 70
     1
102
RTVSPropertyOp44
 70
     1
102
RTVSPropertyOp45
 70
     1
102
RTVSPropertyOp46
 70
     1
102
RTVSPropertyOp47
 70
     1
102
RTVSPropertyOp48
 70
     1
102
RTVSPropertyOp49
 70
     1
102
RTVSPropertyOp50
 70
     1
102
RTVSPropertyOp51
 70
     0
102
RTVSPropertyOp52
 70
     0
102
RTVSPropertyOp53
 70
     1
102
RTVSPropertyOp54
 70
     1
102
RTVSPropertyOp55
 70
     1
102
RTVSPropertyOp56
 70
     1
102
RTVSPropertyOp57
 70
     1
102
RTVSPropertyOp58
 70
     1
102
RTVSPropertyOp59
 70
     1
102
RTVSPropertyOp60
 70
     1
102
RTVSPropertyOp61
 70
     1
102
RTVSPropertyOp62
 70
     1
  0
XRECORD
  5
2A3
102
{ACAD_REACTORS
330
2A2
102
}
330
2A2
100
AcDbXrecord
280
     1
102
RTVSPost2010Prop28
280
     0
102
RTVSPost2010PropOp28
 70
     0
102
RTVSPost2010Prop29
280
     1
102
RTVSPost2010PropOp29
 70
     0
102
RTVSPost2010Prop30
280
     1
102
RTVSPost2010PropOp30
 70
     0
102
RTVSPost2010Prop31
280
     0
102
RTVSPost2010PropOp31
 70
     0
102
RTVSPost2010Prop32
280
     0
102
RTVSPost2010PropOp32
 70
     0
102
RTVSPost2010Prop33
280
     0
102
RTVSPost2010PropOp33
 70
     0
102
RTVSPost2010Prop34
280
     0
102
RTVSPost2010PropOp34
 70
     0
102
RTVSPost2010Prop35
280
     0
102
RTVSPost2010PropOp35
 70
     0
102
RTVSPost2010Prop36
280
     0
102
RTVSPost2010PropOp36
 70
     0
102
RTVSPost2010Prop37
 90
       50
102
RTVSPost2010PropOp37
 70
     0
102
RTVSPost2010Prop38
140
0.0
102
RTVSPost2010PropOp38
 70
     0
102
RTVSPost2010Prop39
140
1.0
102
RTVSPost2010PropOp39
 70
     0
102
RTVSPost2010Prop40
 90
        0
102
RTVSPost2010PropOp40
 70
     0
102
RTVSPost2010Prop41ColorIndex
 90
       18
102
RTVSPost2010Prop41ColorRGB
 90
        0
102
RTVSPost2010PropOp41
 70
     0
102
RTVSPost2010Prop42
 90
       50
102
RTVSPost2010PropOp42
 70
     0
102
RTVSPost2010Prop43
 90
        3
102
RTVSPost2010PropOp43
 70
     0
102
RTVSPost2010Prop44ColorIndex
 90
        5
102
RTVSPost2010Prop44ColorRGB
 90
      255
102
RTVSPost2010PropOp44
 70
     0
102
RTVSPost2010Prop45
280
     0
102
RTVSPost2010PropOp45
 70
     0
102
RTVSPost2010Prop46
 90
       50
102
RTVSPost2010PropOp46
 70
     0
102
RTVSPost2010Prop47
 90
       50
102
RTVSPost2010PropOp47
 70
     0
102
RTVSPost2010Prop48
 90
       50
102
RTVSPost2010PropOp48
 70
     0
102
RTVSPost2010Prop49
280
     0
102
RTVSPost2010PropOp49
 70
     0
102
RTVSPost2010Prop50
 90
       50
102
RTVSPost2010PropOp50
 70
     0
102
RTVSPost2010Prop51ColorIndex
 90
      256
102
RTVSPost2010Prop51ColorRGB
 90
-16777216
102
RTVSPost2010PropOp51
 70
     0
102
RTVSPost2010Prop52
140
1.0
102
RTVSPost2010PropOp52
 70
     0
102
RTVSPost2010Prop53
 90
        2
102
RTVSPost2010PropOp53
 70
     0
102
RTVSPost2010Prop54
  1
strokes_ogs.tif
102
RTVSPost2010PropOp54
 70
     0
102
RTVSPost2010Prop55
280
     0
102
RTVSPost2010PropOp55
 70
     0
102
RTVSPost2010Prop56
140
1.0
102
RTVSPost2010PropOp56
 70
     0
102
RTVSPost2010Prop57
140
1.0
102
RTVSPost2010PropOp57
 70
     0
102
RTVSPropertyOp0
 70
     0
102
RTVSPropertyOp1
 70
     0
102
RTVSPropertyOp2
 70
     0
102
RTVSPropertyOp3
 70
     0
102
RTVSPropertyOp4
 70
     0
102
RTVSPropertyOp5
 70
     0
102
RTVSPropertyOp6
 70
     0
102
RTVSPropertyOp7
 70
     0
102
RTVSPropertyOp8
 70
     0
102
RTVSPropertyOp9
 70
     0
102
RTVSPropertyOp10
 70
     0
102
RTVSPropertyOp11
 70
     0
102
RTVSPropertyOp12
 70
     0
102
RTVSPropertyOp13
 70
     0
102
RTVSPropertyOp14
 70
     2
102
RTVSPropertyOp15
 70
     0
102
RTVSPropertyOp16
 70
     0
102
RTVSPropertyOp17
 70
     0
102
RTVSPropertyOp18
 70
     0
102
RTVSPropertyOp19
 70
     0
102
RTVSPropertyOp20
 70
     0
102
RTVSPropertyOp21
 70
     0
102
RTVSPropertyOp22
 70
     0
102
RTVSPropertyOp23
 70
     0
102
RTVSPropertyOp24
 70
     0
102
RTVSPropertyOp25
 70
     0
102
RTVSPropertyOp26
 70
     0
102
RTVSPropertyOp27
 70
     0
102
RTVSPropertyOp28
 70
     0
102
RTVSPropertyOp29
 70
     0
102
RTVSPropertyOp30
 70
     0
102
RTVSPropertyOp31
 70
     0
102
RTVSPropertyOp32
 70
     0
102
RTVSPropertyOp33
 70
     0
102
RTVSPropertyOp34
 70
     0
102
RTVSPropertyOp35
 70
     0
102
RTVSPropertyOp36
 70
     0
102
RTVSPropertyOp37
 70
     0
102
RTVSPropertyOp38
 70
     0
102
RTVSPropertyOp39
 70
     0
102
RTVSPropertyOp40
 70
     0
102
RTVSPropertyOp41
 70
     0
102
RTVSPropertyOp42
 70
     0
102
RTVSPropertyOp43
 70
     0
102
RTVSPropertyOp44
 70
     0
102
RTVSPropertyOp45
 70
     0
102
RTVSPropertyOp46
 70
     0
102
RTVSPropertyOp47
 70
     0
102
RTVSPropertyOp48
 70
     0
102
RTVSPropertyOp49
 70
     0
102
RTVSPropertyOp50
 70
     0
102
RTVSPropertyOp51
 70
     0
102
RTVSPropertyOp52
 70
     0
102
RTVSPropertyOp53
 70
     0
102
RTVSPropertyOp54
 70
     0
102
RTVSPropertyOp55
 70
     0
102
RTVSPropertyOp56
 70
     0
102
RTVSPropertyOp57
 70
     0
102
RTVSPropertyOp58
 70
     0
102
RTVSPropertyOp59
 70
     0
102
RTVSPropertyOp60
 70
     0
102
RTVSPropertyOp61
 70
     0
102
RTVSPropertyOp62
 70
     0
  0
XRECORD
  5
291
102
{ACAD_REACTORS
330
290
102
}
330
290
100
AcDbXrecord
280
     1
102
RTVSPost2010Prop28
280
     0
102
RTVSPost2010PropOp28
 70
     1
102
RTVSPost2010Prop29
280
     1
102
RTVSPost2010PropOp29
 70
     1
102
RTVSPost2010Prop30
280
     1
102
RTVSPost2010PropOp30
 70
     1
102
RTVSPost2010Prop31
280
     0
102
RTVSPost2010PropOp31
 70
     1
102
RTVSPost2010Prop32
280
     0
102
RTVSPost2010PropOp32
 70
     1
102
RTVSPost2010Prop33
280
     0
102
RTVSPost2010PropOp33
 70
     1
102
RTVSPost2010Prop34
280
     0
102
RTVSPost2010PropOp34
 70
     1
102
RTVSPost2010Prop35
280
     0
102
RTVSPost2010PropOp35
 70
     1
102
RTVSPost2010Prop36
280
     0
102
RTVSPost2010PropOp36
 70
     1
102
RTVSPost2010Prop37
 90
       50
102
RTVSPost2010PropOp37
 70
     1
102
RTVSPost2010Prop38
140
0.0
102
RTVSPost2010PropOp38
 70
     1
102
RTVSPost2010Prop39
140
1.0
102
RTVSPost2010PropOp39
 70
     1
102
RTVSPost2010Prop40
 90
        0
102
RTVSPost2010PropOp40
 70
     1
102
RTVSPost2010Prop41ColorIndex
 90
       18
102
RTVSPost2010Prop41ColorRGB
 90
        0
102
RTVSPost2010PropOp41
 70
     1
102
RTVSPost2010Prop42
 90
       50
102
RTVSPost2010PropOp42
 70
     1
102
RTVSPost2010Prop43
 90
        3
102
RTVSPost2010PropOp43
 70
     1
102
RTVSPost2010Prop44ColorIndex
 90
        5
102
RTVSPost2010Prop44ColorRGB
 90
      255
102
RTVSPost2010PropOp44
 70
     1
102
RTVSPost2010Prop45
280
     0
102
RTVSPost2010PropOp45
 70
     1
102
RTVSPost2010Prop46
 90
       50
102
RTVSPost2010PropOp46
 70
     1
102
RTVSPost2010Prop47
 90
       50
102
RTVSPost2010PropOp47
 70
     1
102
RTVSPost2010Prop48
 90
       50
102
RTVSPost2010PropOp48
 70
     1
102
RTVSPost2010Prop49
280
     0
102
RTVSPost2010PropOp49
 70
     1
102
RTVSPost2010Prop50
 90
       50
102
RTVSPost2010PropOp50
 70
     1
102
RTVSPost2010Prop51ColorIndex
 90
      256
102
RTVSPost2010Prop51ColorRGB
 90
-16777216
102
RTVSPost2010PropOp51
 70
     0
102
RTVSPost2010Prop52
140
1.0
102
RTVSPost2010PropOp52
 70
     0
102
RTVSPost2010Prop53
 90
        2
102
RTVSPost2010PropOp53
 70
     1
102
RTVSPost2010Prop54
  1
strokes_ogs.tif
102
RTVSPost2010PropOp54
 70
     1
102
RTVSPost2010Prop55
280
     0
102
RTVSPost2010PropOp55
 70
     1
102
RTVSPost2010Prop56
140
1.0
102
RTVSPost2010PropOp56
 70
     1
102
RTVSPost2010Prop57
140
1.0
102
RTVSPost2010PropOp57
 70
     1
102
RTVSPropertyOp0
 70
     1
102
RTVSPropertyOp1
 70
     1
102
RTVSPropertyOp2
 70
     1
102
RTVSPropertyOp3
 70
     1
102
RTVSPropertyOp4
 70
     1
102
RTVSPropertyOp5
 70
     1
102
RTVSPropertyOp6
 70
     1
102
RTVSPropertyOp7
 70
     1
102
RTVSPropertyOp8
 70
     1
102
RTVSPropertyOp9
 70
     1
102
RTVSPropertyOp10
 70
     1
102
RTVSPropertyOp11
 70
     1
102
RTVSPropertyOp12
 70
     1
102
RTVSPropertyOp13
 70
     1
102
RTVSPropertyOp14
 70
     1
102
RTVSPropertyOp15
 70
     1
102
RTVSPropertyOp16
 70
     1
102
RTVSPropertyOp17
 70
     1
102
RTVSPropertyOp18
 70
     1
102
RTVSPropertyOp19
 70
     1
102
RTVSPropertyOp20
 70
     1
102
RTVSPropertyOp21
 70
     1
102
RTVSPropertyOp22
 70
     1
102
RTVSPropertyOp23
 70
     1
102
RTVSPropertyOp24
 70
     1
102
RTVSPropertyOp25
 70
     1
102
RTVSPropertyOp26
 70
     1
102
RTVSPropertyOp27
 70
     1
102
RTVSPropertyOp28
 70
     1
102
RTVSPropertyOp29
 70
     1
102
RTVSPropertyOp30
 70
     1
102
RTVSPropertyOp31
 70
     1
102
RTVSPropertyOp32
 70
     1
102
RTVSPropertyOp33
 70
     1
102
RTVSPropertyOp34
 70
     1
102
RTVSPropertyOp35
 70
     1
102
RTVSPropertyOp36
 70
     1
102
RTVSPropertyOp37
 70
     1
102
RTVSPropertyOp38
 70
     1
102
RTVSPropertyOp39
 70
     1
102
RTVSPropertyOp40
 70
     1
102
RTVSPropertyOp41
 70
     1
102
RTVSPropertyOp42
 70
     1
102
RTVSPropertyOp43
 70
     1
102
RTVSPropertyOp44
 70
     1
102
RTVSPropertyOp45
 70
     1
102
RTVSPropertyOp46
 70
     1
102
RTVSPropertyOp47
 70
     1
102
RTVSPropertyOp48
 70
     1
102
RTVSPropertyOp49
 70
     1
102
RTVSPropertyOp50
 70
     1
102
RTVSPropertyOp51
 70
     0
102
RTVSPropertyOp52
 70
     0
102
RTVSPropertyOp53
 70
     1
102
RTVSPropertyOp54
 70
     1
102
RTVSPropertyOp55
 70
     1
102
RTVSPropertyOp56
 70
     1
102
RTVSPropertyOp57
 70
     1
102
RTVSPropertyOp58
 70
     1
102
RTVSPropertyOp59
 70
     1
102
RTVSPropertyOp60
 70
     1
102
RTVSPropertyOp61
 70
     1
102
RTVSPropertyOp62
 70
     1
  0
XRECORD
  5
275
102
{ACAD_REACTORS
330
274
102
}
330
274
100
AcDbXrecord
280
     1
102
RTVSPost2010Prop28
280
     0
102
RTVSPost2010PropOp28
 70
     1
102
RTVSPost2010Prop29
280
     1
102
RTVSPost2010PropOp29
 70
     1
102
RTVSPost2010Prop30
280
     1
102
RTVSPost2010PropOp30
 70
     1
102
RTVSPost2010Prop31
280
     0
102
RTVSPost2010PropOp31
 70
     1
102
RTVSPost2010Prop32
280
     0
102
RTVSPost2010PropOp32
 70
     1
102
RTVSPost2010Prop33
280
     0
102
RTVSPost2010PropOp33
 70
     1
102
RTVSPost2010Prop34
280
     0
102
RTVSPost2010PropOp34
 70
     1
102
RTVSPost2010Prop35
280
     0
102
RTVSPost2010PropOp35
 70
     1
102
RTVSPost2010Prop36
280
     0
102
RTVSPost2010PropOp36
 70
     1
102
RTVSPost2010Prop37
 90
       50
102
RTVSPost2010PropOp37
 70
     1
102
RTVSPost2010Prop38
140
0.0
102
RTVSPost2010PropOp38
 70
     1
102
RTVSPost2010Prop39
140
1.0
102
RTVSPost2010PropOp39
 70
     1
102
RTVSPost2010Prop40
 90
        0
102
RTVSPost2010PropOp40
 70
     1
102
RTVSPost2010Prop41ColorIndex
 90
       18
102
RTVSPost2010Prop41ColorRGB
 90
        0
102
RTVSPost2010PropOp41
 70
     1
102
RTVSPost2010Prop42
 90
       50
102
RTVSPost2010PropOp42
 70
     1
102
RTVSPost2010Prop43
 90
        3
102
RTVSPost2010PropOp43
 70
     1
102
RTVSPost2010Prop44ColorIndex
 90
        5
102
RTVSPost2010Prop44ColorRGB
 90
      255
102
RTVSPost2010PropOp44
 70
     1
102
RTVSPost2010Prop45
280
     0
102
RTVSPost2010PropOp45
 70
     1
102
RTVSPost2010Prop46
 90
       50
102
RTVSPost2010PropOp46
 70
     1
102
RTVSPost2010Prop47
 90
       50
102
RTVSPost2010PropOp47
 70
     1
102
RTVSPost2010Prop48
 90
       50
102
RTVSPost2010PropOp48
 70
     1
102
RTVSPost2010Prop49
280
     0
102
RTVSPost2010PropOp49
 70
     1
102
RTVSPost2010Prop50
 90
       50
102
RTVSPost2010PropOp50
 70
     1
102
RTVSPost2010Prop51ColorIndex
 90
      256
102
RTVSPost2010Prop51ColorRGB
 90
-16777216
102
RTVSPost2010PropOp51
 70
     0
102
RTVSPost2010Prop52
140
1.0
102
RTVSPost2010PropOp52
 70
     0
102
RTVSPost2010Prop53
 90
        2
102
RTVSPost2010PropOp53
 70
     1
102
RTVSPost2010Prop54
  1
strokes_ogs.tif
102
RTVSPost2010PropOp54
 70
     1
102
RTVSPost2010Prop55
280
     0
102
RTVSPost2010PropOp55
 70
     1
102
RTVSPost2010Prop56
140
1.0
102
RTVSPost2010PropOp56
 70
     1
102
RTVSPost2010Prop57
140
1.0
102
RTVSPost2010PropOp57
 70
     1
102
RTVSPropertyOp0
 70
     1
102
RTVSPropertyOp1
 70
     1
102
RTVSPropertyOp2
 70
     1
102
RTVSPropertyOp3
 70
     1
102
RTVSPropertyOp4
 70
     1
102
RTVSPropertyOp5
 70
     1
102
RTVSPropertyOp6
 70
     1
102
RTVSPropertyOp7
 70
     1
102
RTVSPropertyOp8
 70
     1
102
RTVSPropertyOp9
 70
     1
102
RTVSPropertyOp10
 70
     1
102
RTVSPropertyOp11
 70
     1
102
RTVSPropertyOp12
 70
     1
102
RTVSPropertyOp13
 70
     1
102
RTVSPropertyOp14
 70
     1
102
RTVSPropertyOp15
 70
     1
102
RTVSPropertyOp16
 70
     1
102
RTVSPropertyOp17
 70
     1
102
RTVSPropertyOp18
 70
     1
102
RTVSPropertyOp19
 70
     1
102
RTVSPropertyOp20
 70
     1
102
RTVSPropertyOp21
 70
     1
102
RTVSPropertyOp22
 70
     1
102
RTVSPropertyOp23
 70
     1
102
RTVSPropertyOp24
 70
     1
102
RTVSPropertyOp25
 70
     1
102
RTVSPropertyOp26
 70
     1
102
RTVSPropertyOp27
 70
     1
102
RTVSPropertyOp28
 70
     1
102
RTVSPropertyOp29
 70
     1
102
RTVSPropertyOp30
 70
     1
102
RTVSPropertyOp31
 70
     1
102
RTVSPropertyOp32
 70
     1
102
RTVSPropertyOp33
 70
     1
102
RTVSPropertyOp34
 70
     1
102
RTVSPropertyOp35
 70
     1
102
RTVSPropertyOp36
 70
     1
102
RTVSPropertyOp37
 70
     1
102
RTVSPropertyOp38
 70
     1
102
RTVSPropertyOp39
 70
     1
102
RTVSPropertyOp40
 70
     1
102
RTVSPropertyOp41
 70
     1
102
RTVSPropertyOp42
 70
     1
102
RTVSPropertyOp43
 70
     1
102
RTVSPropertyOp44
 70
     1
102
RTVSPropertyOp45
 70
     1
102
RTVSPropertyOp46
 70
     1
102
RTVSPropertyOp47
 70
     1
102
RTVSPropertyOp48
 70
     1
102
RTVSPropertyOp49
 70
     1
102
RTVSPropertyOp50
 70
     1
102
RTVSPropertyOp51
 70
     0
102
RTVSPropertyOp52
 70
     0
102
RTVSPropertyOp53
 70
     1
102
RTVSPropertyOp54
 70
     1
102
RTVSPropertyOp55
 70
     1
102
RTVSPropertyOp56
 70
     1
102
RTVSPropertyOp57
 70
     1
102
RTVSPropertyOp58
 70
     1
102
RTVSPropertyOp59
 70
     1
102
RTVSPropertyOp60
 70
     1
102
RTVSPropertyOp61
 70
     1
102
RTVSPropertyOp62
 70
     1
  0
XRECORD
  5
277
102
{ACAD_REACTORS
330
276
102
}
330
276
100
AcDbXrecord
280
     1
102
RTVSPost2010Prop28
280
     0
102
RTVSPost2010PropOp28
 70
     1
102
RTVSPost2010Prop29
280
     1
102
RTVSPost2010PropOp29
 70
     1
102
RTVSPost2010Prop30
280
     1
102
RTVSPost2010PropOp30
 70
     1
102
RTVSPost2010Prop31
280
     0
102
RTVSPost2010PropOp31
 70
     1
102
RTVSPost2010Prop32
280
     0
102
RTVSPost2010PropOp32
 70
     1
102
RTVSPost2010Prop33
280
     0
102
RTVSPost2010PropOp33
 70
     1
102
RTVSPost2010Prop34
280
     0
102
RTVSPost2010PropOp34
 70
     1
102
RTVSPost2010Prop35
280
     0
102
RTVSPost2010PropOp35
 70
     1
102
RTVSPost2010Prop36
280
     0
102
RTVSPost2010PropOp36
 70
     1
102
RTVSPost2010Prop37
 90
       50
102
RTVSPost2010PropOp37
 70
     1
102
RTVSPost2010Prop38
140
0.0
102
RTVSPost2010PropOp38
 70
     1
102
RTVSPost2010Prop39
140
1.0
102
RTVSPost2010PropOp39
 70
     1
102
RTVSPost2010Prop40
 90
        0
102
RTVSPost2010PropOp40
 70
     1
102
RTVSPost2010Prop41ColorIndex
 90
       18
102
RTVSPost2010Prop41ColorRGB
 90
        0
102
RTVSPost2010PropOp41
 70
     1
102
RTVSPost2010Prop42
 90
       50
102
RTVSPost2010PropOp42
 70
     1
102
RTVSPost2010Prop43
 90
        3
102
RTVSPost2010PropOp43
 70
     1
102
RTVSPost2010Prop44ColorIndex
 90
        5
102
RTVSPost2010Prop44ColorRGB
 90
      255
102
RTVSPost2010PropOp44
 70
     1
102
RTVSPost2010Prop45
280
     0
102
RTVSPost2010PropOp45
 70
     1
102
RTVSPost2010Prop46
 90
       50
102
RTVSPost2010PropOp46
 70
     1
102
RTVSPost2010Prop47
 90
       50
102
RTVSPost2010PropOp47
 70
     1
102
RTVSPost2010Prop48
 90
       50
102
RTVSPost2010PropOp48
 70
     1
102
RTVSPost2010Prop49
280
     0
102
RTVSPost2010PropOp49
 70
     1
102
RTVSPost2010Prop50
 90
       50
102
RTVSPost2010PropOp50
 70
     1
102
RTVSPost2010Prop51ColorIndex
 90
      256
102
RTVSPost2010Prop51ColorRGB
 90
-16777216
102
RTVSPost2010PropOp51
 70
     0
102
RTVSPost2010Prop52
140
1.0
102
RTVSPost2010PropOp52
 70
     0
102
RTVSPost2010Prop53
 90
        2
102
RTVSPost2010PropOp53
 70
     1
102
RTVSPost2010Prop54
  1
strokes_ogs.tif
102
RTVSPost2010PropOp54
 70
     1
102
RTVSPost2010Prop55
280
     0
102
RTVSPost2010PropOp55
 70
     1
102
RTVSPost2010Prop56
140
1.0
102
RTVSPost2010PropOp56
 70
     1
102
RTVSPost2010Prop57
140
1.0
102
RTVSPost2010PropOp57
 70
     1
102
RTVSPropertyOp0
 70
     1
102
RTVSPropertyOp1
 70
     1
102
RTVSPropertyOp2
 70
     1
102
RTVSPropertyOp3
 70
     1
102
RTVSPropertyOp4
 70
     1
102
RTVSPropertyOp5
 70
     1
102
RTVSPropertyOp6
 70
     1
102
RTVSPropertyOp7
 70
     1
102
RTVSPropertyOp8
 70
     1
102
RTVSPropertyOp9
 70
     1
102
RTVSPropertyOp10
 70
     1
102
RTVSPropertyOp11
 70
     1
102
RTVSPropertyOp12
 70
     1
102
RTVSPropertyOp13
 70
     1
102
RTVSPropertyOp14
 70
     1
102
RTVSPropertyOp15
 70
     1
102
RTVSPropertyOp16
 70
     1
102
RTVSPropertyOp17
 70
     1
102
RTVSPropertyOp18
 70
     1
102
RTVSPropertyOp19
 70
     1
102
RTVSPropertyOp20
 70
     1
102
RTVSPropertyOp21
 70
     1
102
RTVSPropertyOp22
 70
     1
102
RTVSPropertyOp23
 70
     1
102
RTVSPropertyOp24
 70
     1
102
RTVSPropertyOp25
 70
     1
102
RTVSPropertyOp26
 70
     1
102
RTVSPropertyOp27
 70
     1
102
RTVSPropertyOp28
 70
     1
102
RTVSPropertyOp29
 70
     1
102
RTVSPropertyOp30
 70
     1
102
RTVSPropertyOp31
 70
     1
102
RTVSPropertyOp32
 70
     1
102
RTVSPropertyOp33
 70
     1
102
RTVSPropertyOp34
 70
     1
102
RTVSPropertyOp35
 70
     1
102
RTVSPropertyOp36
 70
     1
102
RTVSPropertyOp37
 70
     1
102
RTVSPropertyOp38
 70
     1
102
RTVSPropertyOp39
 70
     1
102
RTVSPropertyOp40
 70
     1
102
RTVSPropertyOp41
 70
     1
102
RTVSPropertyOp42
 70
     1
102
RTVSPropertyOp43
 70
     1
102
RTVSPropertyOp44
 70
     1
102
RTVSPropertyOp45
 70
     1
102
RTVSPropertyOp46
 70
     1
102
RTVSPropertyOp47
 70
     1
102
RTVSPropertyOp48
 70
     1
102
RTVSPropertyOp49
 70
     1
102
RTVSPropertyOp50
 70
     1
102
RTVSPropertyOp51
 70
     0
102
RTVSPropertyOp52
 70
     0
102
RTVSPropertyOp53
 70
     1
102
RTVSPropertyOp54
 70
     1
102
RTVSPropertyOp55
 70
     1
102
RTVSPropertyOp56
 70
     1
102
RTVSPropertyOp57
 70
     1
102
RTVSPropertyOp58
 70
     1
102
RTVSPropertyOp59
 70
     1
102
RTVSPropertyOp60
 70
     1
102
RTVSPropertyOp61
 70
     1
102
RTVSPropertyOp62
 70
     1
  0
XRECORD
  5
279
102
{ACAD_REACTORS
330
278
102
}
330
278
100
AcDbXrecord
280
     1
102
RTVSPost2010Prop28
280
     0
102
RTVSPost2010PropOp28
 70
     1
102
RTVSPost2010Prop29
280
     1
102
RTVSPost2010PropOp29
 70
     1
102
RTVSPost2010Prop30
280
     1
102
RTVSPost2010PropOp30
 70
     1
102
RTVSPost2010Prop31
280
     0
102
RTVSPost2010PropOp31
 70
     1
102
RTVSPost2010Prop32
280
     0
102
RTVSPost2010PropOp32
 70
     1
102
RTVSPost2010Prop33
280
     0
102
RTVSPost2010PropOp33
 70
     1
102
RTVSPost2010Prop34
280
     0
102
RTVSPost2010PropOp34
 70
     1
102
RTVSPost2010Prop35
280
     0
102
RTVSPost2010PropOp35
 70
     1
102
RTVSPost2010Prop36
280
     0
102
RTVSPost2010PropOp36
 70
     1
102
RTVSPost2010Prop37
 90
       50
102
RTVSPost2010PropOp37
 70
     1
102
RTVSPost2010Prop38
140
0.0
102
RTVSPost2010PropOp38
 70
     1
102
RTVSPost2010Prop39
140
1.0
102
RTVSPost2010PropOp39
 70
     1
102
RTVSPost2010Prop40
 90
        0
102
RTVSPost2010PropOp40
 70
     1
102
RTVSPost2010Prop41ColorIndex
 90
       18
102
RTVSPost2010Prop41ColorRGB
 90
        0
102
RTVSPost2010PropOp41
 70
     1
102
RTVSPost2010Prop42
 90
       50
102
RTVSPost2010PropOp42
 70
     1
102
RTVSPost2010Prop43
 90
        3
102
RTVSPost2010PropOp43
 70
     1
102
RTVSPost2010Prop44ColorIndex
 90
        5
102
RTVSPost2010Prop44ColorRGB
 90
      255
102
RTVSPost2010PropOp44
 70
     1
102
RTVSPost2010Prop45
280
     0
102
RTVSPost2010PropOp45
 70
     1
102
RTVSPost2010Prop46
 90
       50
102
RTVSPost2010PropOp46
 70
     1
102
RTVSPost2010Prop47
 90
       50
102
RTVSPost2010PropOp47
 70
     1
102
RTVSPost2010Prop48
 90
       50
102
RTVSPost2010PropOp48
 70
     1
102
RTVSPost2010Prop49
280
     0
102
RTVSPost2010PropOp49
 70
     1
102
RTVSPost2010Prop50
 90
       50
102
RTVSPost2010PropOp50
 70
     1
102
RTVSPost2010Prop51ColorIndex
 90
      256
102
RTVSPost2010Prop51ColorRGB
 90
-16777216
102
RTVSPost2010PropOp51
 70
     0
102
RTVSPost2010Prop52
140
1.0
102
RTVSPost2010PropOp52
 70
     0
102
RTVSPost2010Prop53
 90
        2
102
RTVSPost2010PropOp53
 70
     1
102
RTVSPost2010Prop54
  1
strokes_ogs.tif
102
RTVSPost2010PropOp54
 70
     1
102
RTVSPost2010Prop55
280
     0
102
RTVSPost2010PropOp55
 70
     1
102
RTVSPost2010Prop56
140
1.0
102
RTVSPost2010PropOp56
 70
     1
102
RTVSPost2010Prop57
140
1.0
102
RTVSPost2010PropOp57
 70
     1
102
RTVSPropertyOp0
 70
     1
102
RTVSPropertyOp1
 70
     1
102
RTVSPropertyOp2
 70
     1
102
RTVSPropertyOp3
 70
     1
102
RTVSPropertyOp4
 70
     1
102
RTVSPropertyOp5
 70
     1
102
RTVSPropertyOp6
 70
     1
102
RTVSPropertyOp7
 70
     1
102
RTVSPropertyOp8
 70
     1
102
RTVSPropertyOp9
 70
     1
102
RTVSPropertyOp10
 70
     1
102
RTVSPropertyOp11
 70
     1
102
RTVSPropertyOp12
 70
     1
102
RTVSPropertyOp13
 70
     1
102
RTVSPropertyOp14
 70
     1
102
RTVSPropertyOp15
 70
     1
102
RTVSPropertyOp16
 70
     1
102
RTVSPropertyOp17
 70
     1
102
RTVSPropertyOp18
 70
     1
102
RTVSPropertyOp19
 70
     1
102
RTVSPropertyOp20
 70
     1
102
RTVSPropertyOp21
 70
     1
102
RTVSPropertyOp22
 70
     1
102
RTVSPropertyOp23
 70
     1
102
RTVSPropertyOp24
 70
     1
102
RTVSPropertyOp25
 70
     1
102
RTVSPropertyOp26
 70
     1
102
RTVSPropertyOp27
 70
     1
102
RTVSPropertyOp28
 70
     1
102
RTVSPropertyOp29
 70
     1
102
RTVSPropertyOp30
 70
     1
102
RTVSPropertyOp31
 70
     1
102
RTVSPropertyOp32
 70
     1
102
RTVSPropertyOp33
 70
     1
102
RTVSPropertyOp34
 70
     1
102
RTVSPropertyOp35
 70
     1
102
RTVSPropertyOp36
 70
     1
102
RTVSPropertyOp37
 70
     1
102
RTVSPropertyOp38
 70
     1
102
RTVSPropertyOp39
 70
     1
102
RTVSPropertyOp40
 70
     1
102
RTVSPropertyOp41
 70
     1
102
RTVSPropertyOp42
 70
     1
102
RTVSPropertyOp43
 70
     1
102
RTVSPropertyOp44
 70
     1
102
RTVSPropertyOp45
 70
     1
102
RTVSPropertyOp46
 70
     1
102
RTVSPropertyOp47
 70
     1
102
RTVSPropertyOp48
 70
     1
102
RTVSPropertyOp49
 70
     1
102
RTVSPropertyOp50
 70
     1
102
RTVSPropertyOp51
 70
     0
102
RTVSPropertyOp52
 70
     0
102
RTVSPropertyOp53
 70
     1
102
RTVSPropertyOp54
 70
     1
102
RTVSPropertyOp55
 70
     1
102
RTVSPropertyOp56
 70
     1
102
RTVSPropertyOp57
 70
     1
102
RTVSPropertyOp58
 70
     1
102
RTVSPropertyOp59
 70
     1
102
RTVSPropertyOp60
 70
     1
102
RTVSPropertyOp61
 70
     1
102
RTVSPropertyOp62
 70
     1
  0
XRECORD
  5
27B
102
{ACAD_REACTORS
330
27A
102
}
330
27A
100
AcDbXrecord
280
     1
102
RTVSPost2010Prop28
280
     0
102
RTVSPost2010PropOp28
 70
     1
102
RTVSPost2010Prop29
280
     1
102
RTVSPost2010PropOp29
 70
     1
102
RTVSPost2010Prop30
280
     1
102
RTVSPost2010PropOp30
 70
     1
102
RTVSPost2010Prop31
280
     0
102
RTVSPost2010PropOp31
 70
     1
102
RTVSPost2010Prop32
280
     0
102
RTVSPost2010PropOp32
 70
     1
102
RTVSPost2010Prop33
280
     0
102
RTVSPost2010PropOp33
 70
     1
102
RTVSPost2010Prop34
280
     0
102
RTVSPost2010PropOp34
 70
     1
102
RTVSPost2010Prop35
280
     0
102
RTVSPost2010PropOp35
 70
     1
102
RTVSPost2010Prop36
280
     0
102
RTVSPost2010PropOp36
 70
     1
102
RTVSPost2010Prop37
 90
       50
102
RTVSPost2010PropOp37
 70
     1
102
RTVSPost2010Prop38
140
0.0
102
RTVSPost2010PropOp38
 70
     1
102
RTVSPost2010Prop39
140
1.0
102
RTVSPost2010PropOp39
 70
     1
102
RTVSPost2010Prop40
 90
        0
102
RTVSPost2010PropOp40
 70
     1
102
RTVSPost2010Prop41ColorIndex
 90
       18
102
RTVSPost2010Prop41ColorRGB
 90
        0
102
RTVSPost2010PropOp41
 70
     1
102
RTVSPost2010Prop42
 90
       50
102
RTVSPost2010PropOp42
 70
     1
102
RTVSPost2010Prop43
 90
        3
102
RTVSPost2010PropOp43
 70
     1
102
RTVSPost2010Prop44ColorIndex
 90
        5
102
RTVSPost2010Prop44ColorRGB
 90
      255
102
RTVSPost2010PropOp44
 70
     1
102
RTVSPost2010Prop45
280
     0
102
RTVSPost2010PropOp45
 70
     1
102
RTVSPost2010Prop46
 90
       50
102
RTVSPost2010PropOp46
 70
     1
102
RTVSPost2010Prop47
 90
       50
102
RTVSPost2010PropOp47
 70
     1
102
RTVSPost2010Prop48
 90
       50
102
RTVSPost2010PropOp48
 70
     1
102
RTVSPost2010Prop49
280
     0
102
RTVSPost2010PropOp49
 70
     1
102
RTVSPost2010Prop50
 90
       50
102
RTVSPost2010PropOp50
 70
     1
102
RTVSPost2010Prop51ColorIndex
 90
      256
102
RTVSPost2010Prop51ColorRGB
 90
-16777216
102
RTVSPost2010PropOp51
 70
     0
102
RTVSPost2010Prop52
140
1.0
102
RTVSPost2010PropOp52
 70
     0
102
RTVSPost2010Prop53
 90
        2
102
RTVSPost2010PropOp53
 70
     1
102
RTVSPost2010Prop54
  1
strokes_ogs.tif
102
RTVSPost2010PropOp54
 70
     1
102
RTVSPost2010Prop55
280
     0
102
RTVSPost2010PropOp55
 70
     1
102
RTVSPost2010Prop56
140
1.0
102
RTVSPost2010PropOp56
 70
     1
102
RTVSPost2010Prop57
140
1.0
102
RTVSPost2010PropOp57
 70
     1
102
RTVSPropertyOp0
 70
     1
102
RTVSPropertyOp1
 70
     1
102
RTVSPropertyOp2
 70
     1
102
RTVSPropertyOp3
 70
     1
102
RTVSPropertyOp4
 70
     1
102
RTVSPropertyOp5
 70
     1
102
RTVSPropertyOp6
 70
     1
102
RTVSPropertyOp7
 70
     1
102
RTVSPropertyOp8
 70
     1
102
RTVSPropertyOp9
 70
     1
102
RTVSPropertyOp10
 70
     1
102
RTVSPropertyOp11
 70
     1
102
RTVSPropertyOp12
 70
     1
102
RTVSPropertyOp13
 70
     1
102
RTVSPropertyOp14
 70
     1
102
RTVSPropertyOp15
 70
     1
102
RTVSPropertyOp16
 70
     1
102
RTVSPropertyOp17
 70
     1
102
RTVSPropertyOp18
 70
     1
102
RTVSPropertyOp19
 70
     1
102
RTVSPropertyOp20
 70
     1
102
RTVSPropertyOp21
 70
     1
102
RTVSPropertyOp22
 70
     1
102
RTVSPropertyOp23
 70
     1
102
RTVSPropertyOp24
 70
     1
102
RTVSPropertyOp25
 70
     1
102
RTVSPropertyOp26
 70
     1
102
RTVSPropertyOp27
 70
     1
102
RTVSPropertyOp28
 70
     1
102
RTVSPropertyOp29
 70
     1
102
RTVSPropertyOp30
 70
     1
102
RTVSPropertyOp31
 70
     1
102
RTVSPropertyOp32
 70
     1
102
RTVSPropertyOp33
 70
     1
102
RTVSPropertyOp34
 70
     1
102
RTVSPropertyOp35
 70
     1
102
RTVSPropertyOp36
 70
     1
102
RTVSPropertyOp37
 70
     1
102
RTVSPropertyOp38
 70
     1
102
RTVSPropertyOp39
 70
     1
102
RTVSPropertyOp40
 70
     1
102
RTVSPropertyOp41
 70
     1
102
RTVSPropertyOp42
 70
     1
102
RTVSPropertyOp43
 70
     1
102
RTVSPropertyOp44
 70
     1
102
RTVSPropertyOp45
 70
     1
102
RTVSPropertyOp46
 70
     1
102
RTVSPropertyOp47
 70
     1
102
RTVSPropertyOp48
 70
     1
102
RTVSPropertyOp49
 70
     1
102
RTVSPropertyOp50
 70
     1
102
RTVSPropertyOp51
 70
     0
102
RTVSPropertyOp52
 70
     0
102
RTVSPropertyOp53
 70
     1
102
RTVSPropertyOp54
 70
     1
102
RTVSPropertyOp55
 70
     1
102
RTVSPropertyOp56
 70
     1
102
RTVSPropertyOp57
 70
     1
102
RTVSPropertyOp58
 70
     1
102
RTVSPropertyOp59
 70
     1
102
RTVSPropertyOp60
 70
     1
102
RTVSPropertyOp61
 70
     1
102
RTVSPropertyOp62
 70
     1
  0
XRECORD
  5
283
102
{ACAD_REACTORS
330
282
102
}
330
282
100
AcDbXrecord
280
     1
102
RTVSPost2010Prop28
280
     0
102
RTVSPost2010PropOp28
 70
     1
102
RTVSPost2010Prop29
280
     1
102
RTVSPost2010PropOp29
 70
     1
102
RTVSPost2010Prop30
280
     1
102
RTVSPost2010PropOp30
 70
     1
102
RTVSPost2010Prop31
280
     0
102
RTVSPost2010PropOp31
 70
     1
102
RTVSPost2010Prop32
280
     0
102
RTVSPost2010PropOp32
 70
     1
102
RTVSPost2010Prop33
280
     0
102
RTVSPost2010PropOp33
 70
     1
102
RTVSPost2010Prop34
280
     0
102
RTVSPost2010PropOp34
 70
     1
102
RTVSPost2010Prop35
280
     0
102
RTVSPost2010PropOp35
 70
     1
102
RTVSPost2010Prop36
280
     0
102
RTVSPost2010PropOp36
 70
     1
102
RTVSPost2010Prop37
 90
       50
102
RTVSPost2010PropOp37
 70
     1
102
RTVSPost2010Prop38
140
0.0
102
RTVSPost2010PropOp38
 70
     1
102
RTVSPost2010Prop39
140
1.0
102
RTVSPost2010PropOp39
 70
     1
102
RTVSPost2010Prop40
 90
        0
102
RTVSPost2010PropOp40
 70
     1
102
RTVSPost2010Prop41ColorIndex
 90
       18
102
RTVSPost2010Prop41ColorRGB
 90
        0
102
RTVSPost2010PropOp41
 70
     1
102
RTVSPost2010Prop42
 90
       50
102
RTVSPost2010PropOp42
 70
     1
102
RTVSPost2010Prop43
 90
        3
102
RTVSPost2010PropOp43
 70
     1
102
RTVSPost2010Prop44ColorIndex
 90
        5
102
RTVSPost2010Prop44ColorRGB
 90
      255
102
RTVSPost2010PropOp44
 70
     1
102
RTVSPost2010Prop45
280
     0
102
RTVSPost2010PropOp45
 70
     1
102
RTVSPost2010Prop46
 90
       50
102
RTVSPost2010PropOp46
 70
     1
102
RTVSPost2010Prop47
 90
       50
102
RTVSPost2010PropOp47
 70
     1
102
RTVSPost2010Prop48
 90
       50
102
RTVSPost2010PropOp48
 70
     1
102
RTVSPost2010Prop49
280
     0
102
RTVSPost2010PropOp49
 70
     1
102
RTVSPost2010Prop50
 90
       50
102
RTVSPost2010PropOp50
 70
     1
102
RTVSPost2010Prop51ColorIndex
 90
      256
102
RTVSPost2010Prop51ColorRGB
 90
-16777216
102
RTVSPost2010PropOp51
 70
     0
102
RTVSPost2010Prop52
140
1.0
102
RTVSPost2010PropOp52
 70
     0
102
RTVSPost2010Prop53
 90
        2
102
RTVSPost2010PropOp53
 70
     1
102
RTVSPost2010Prop54
  1
strokes_ogs.tif
102
RTVSPost2010PropOp54
 70
     1
102
RTVSPost2010Prop55
280
     0
102
RTVSPost2010PropOp55
 70
     1
102
RTVSPost2010Prop56
140
1.0
102
RTVSPost2010PropOp56
 70
     1
102
RTVSPost2010Prop57
140
1.0
102
RTVSPost2010PropOp57
 70
     1
102
RTVSPropertyOp0
 70
     1
102
RTVSPropertyOp1
 70
     1
102
RTVSPropertyOp2
 70
     1
102
RTVSPropertyOp3
 70
     1
102
RTVSPropertyOp4
 70
     1
102
RTVSPropertyOp5
 70
     1
102
RTVSPropertyOp6
 70
     1
102
RTVSPropertyOp7
 70
     1
102
RTVSPropertyOp8
 70
     1
102
RTVSPropertyOp9
 70
     1
102
RTVSPropertyOp10
 70
     1
102
RTVSPropertyOp11
 70
     1
102
RTVSPropertyOp12
 70
     1
102
RTVSPropertyOp13
 70
     1
102
RTVSPropertyOp14
 70
     1
102
RTVSPropertyOp15
 70
     1
102
RTVSPropertyOp16
 70
     1
102
RTVSPropertyOp17
 70
     1
102
RTVSPropertyOp18
 70
     1
102
RTVSPropertyOp19
 70
     1
102
RTVSPropertyOp20
 70
     1
102
RTVSPropertyOp21
 70
     1
102
RTVSPropertyOp22
 70
     1
102
RTVSPropertyOp23
 70
     1
102
RTVSPropertyOp24
 70
     1
102
RTVSPropertyOp25
 70
     1
102
RTVSPropertyOp26
 70
     1
102
RTVSPropertyOp27
 70
     1
102
RTVSPropertyOp28
 70
     1
102
RTVSPropertyOp29
 70
     1
102
RTVSPropertyOp30
 70
     1
102
RTVSPropertyOp31
 70
     1
102
RTVSPropertyOp32
 70
     1
102
RTVSPropertyOp33
 70
     1
102
RTVSPropertyOp34
 70
     1
102
RTVSPropertyOp35
 70
     1
102
RTVSPropertyOp36
 70
     1
102
RTVSPropertyOp37
 70
     1
102
RTVSPropertyOp38
 70
     1
102
RTVSPropertyOp39
 70
     1
102
RTVSPropertyOp40
 70
     1
102
RTVSPropertyOp41
 70
     1
102
RTVSPropertyOp42
 70
     1
102
RTVSPropertyOp43
 70
     1
102
RTVSPropertyOp44
 70
     1
102
RTVSPropertyOp45
 70
     1
102
RTVSPropertyOp46
 70
     1
102
RTVSPropertyOp47
 70
     1
102
RTVSPropertyOp48
 70
     1
102
RTVSPropertyOp49
 70
     1
102
RTVSPropertyOp50
 70
     1
102
RTVSPropertyOp51
 70
     0
102
RTVSPropertyOp52
 70
     0
102
RTVSPropertyOp53
 70
     1
102
RTVSPropertyOp54
 70
     1
102
RTVSPropertyOp55
 70
     1
102
RTVSPropertyOp56
 70
     1
102
RTVSPropertyOp57
 70
     1
102
RTVSPropertyOp58
 70
     1
102
RTVSPropertyOp59
 70
     1
102
RTVSPropertyOp60
 70
     1
102
RTVSPropertyOp61
 70
     1
102
RTVSPropertyOp62
 70
     1
  0
XRECORD
  5
29F
102
{ACAD_REACTORS
330
29E
102
}
330
29E
100
AcDbXrecord
280
     1
102
RTVSPost2010Prop28
280
     0
102
RTVSPost2010PropOp28
 70
     0
102
RTVSPost2010Prop29
280
     1
102
RTVSPost2010PropOp29
 70
     0
102
RTVSPost2010Prop30
280
     1
102
RTVSPost2010PropOp30
 70
     0
102
RTVSPost2010Prop31
280
     0
102
RTVSPost2010PropOp31
 70
     0
102
RTVSPost2010Prop32
280
     0
102
RTVSPost2010PropOp32
 70
     0
102
RTVSPost2010Prop33
280
     0
102
RTVSPost2010PropOp33
 70
     0
102
RTVSPost2010Prop34
280
     0
102
RTVSPost2010PropOp34
 70
     0
102
RTVSPost2010Prop35
280
     0
102
RTVSPost2010PropOp35
 70
     0
102
RTVSPost2010Prop36
280
     0
102
RTVSPost2010PropOp36
 70
     0
102
RTVSPost2010Prop37
 90
       50
102
RTVSPost2010PropOp37
 70
     0
102
RTVSPost2010Prop38
140
0.0
102
RTVSPost2010PropOp38
 70
     0
102
RTVSPost2010Prop39
140
1.0
102
RTVSPost2010PropOp39
 70
     0
102
RTVSPost2010Prop40
 90
        0
102
RTVSPost2010PropOp40
 70
     0
102
RTVSPost2010Prop41ColorIndex
 90
       18
102
RTVSPost2010Prop41ColorRGB
 90
        0
102
RTVSPost2010PropOp41
 70
     0
102
RTVSPost2010Prop42
 90
       50
102
RTVSPost2010PropOp42
 70
     0
102
RTVSPost2010Prop43
 90
        3
102
RTVSPost2010PropOp43
 70
     0
102
RTVSPost2010Prop44ColorIndex
 90
        5
102
RTVSPost2010Prop44ColorRGB
 90
      255
102
RTVSPost2010PropOp44
 70
     0
102
RTVSPost2010Prop45
280
     0
102
RTVSPost2010PropOp45
 70
     0
102
RTVSPost2010Prop46
 90
       50
102
RTVSPost2010PropOp46
 70
     0
102
RTVSPost2010Prop47
 90
       50
102
RTVSPost2010PropOp47
 70
     0
102
RTVSPost2010Prop48
 90
       50
102
RTVSPost2010PropOp48
 70
     0
102
RTVSPost2010Prop49
280
     0
102
RTVSPost2010PropOp49
 70
     0
102
RTVSPost2010Prop50
 90
       50
102
RTVSPost2010PropOp50
 70
     0
102
RTVSPost2010Prop51ColorIndex
 90
      256
102
RTVSPost2010Prop51ColorRGB
 90
-16777216
102
RTVSPost2010PropOp51
 70
     0
102
RTVSPost2010Prop52
140
1.0
102
RTVSPost2010PropOp52
 70
     0
102
RTVSPost2010Prop53
 90
        2
102
RTVSPost2010PropOp53
 70
     0
102
RTVSPost2010Prop54
  1
strokes_ogs.tif
102
RTVSPost2010PropOp54
 70
     0
102
RTVSPost2010Prop55
280
     0
102
RTVSPost2010PropOp55
 70
     0
102
RTVSPost2010Prop56
140
1.0
102
RTVSPost2010PropOp56
 70
     0
102
RTVSPost2010Prop57
140
1.0
102
RTVSPost2010PropOp57
 70
     0
102
RTVSPropertyOp0
 70
     0
102
RTVSPropertyOp1
 70
     0
102
RTVSPropertyOp2
 70
     0
102
RTVSPropertyOp3
 70
     0
102
RTVSPropertyOp4
 70
     0
102
RTVSPropertyOp5
 70
     0
102
RTVSPropertyOp6
 70
     0
102
RTVSPropertyOp7
 70
     0
102
RTVSPropertyOp8
 70
     0
102
RTVSPropertyOp9
 70
     0
102
RTVSPropertyOp10
 70
     0
102
RTVSPropertyOp11
 70
     0
102
RTVSPropertyOp12
 70
     0
102
RTVSPropertyOp13
 70
     0
102
RTVSPropertyOp14
 70
     2
102
RTVSPropertyOp15
 70
     0
102
RTVSPropertyOp16
 70
     0
102
RTVSPropertyOp17
 70
     0
102
RTVSPropertyOp18
 70
     0
102
RTVSPropertyOp19
 70
     0
102
RTVSPropertyOp20
 70
     0
102
RTVSPropertyOp21
 70
     0
102
RTVSPropertyOp22
 70
     0
102
RTVSPropertyOp23
 70
     0
102
RTVSPropertyOp24
 70
     0
102
RTVSPropertyOp25
 70
     0
102
RTVSPropertyOp26
 70
     0
102
RTVSPropertyOp27
 70
     0
102
RTVSPropertyOp28
 70
     0
102
RTVSPropertyOp29
 70
     0
102
RTVSPropertyOp30
 70
     0
102
RTVSPropertyOp31
 70
     0
102
RTVSPropertyOp32
 70
     0
102
RTVSPropertyOp33
 70
     0
102
RTVSPropertyOp34
 70
     0
102
RTVSPropertyOp35
 70
     0
102
RTVSPropertyOp36
 70
     0
102
RTVSPropertyOp37
 70
     0
102
RTVSPropertyOp38
 70
     0
102
RTVSPropertyOp39
 70
     0
102
RTVSPropertyOp40
 70
     0
102
RTVSPropertyOp41
 70
     0
102
RTVSPropertyOp42
 70
     0
102
RTVSPropertyOp43
 70
     0
102
RTVSPropertyOp44
 70
     0
102
RTVSPropertyOp45
 70
     0
102
RTVSPropertyOp46
 70
     0
102
RTVSPropertyOp47
 70
     0
102
RTVSPropertyOp48
 70
     0
102
RTVSPropertyOp49
 70
     0
102
RTVSPropertyOp50
 70
     0
102
RTVSPropertyOp51
 70
     0
102
RTVSPropertyOp52
 70
     0
102
RTVSPropertyOp53
 70
     0
102
RTVSPropertyOp54
 70
     0
102
RTVSPropertyOp55
 70
     0
102
RTVSPropertyOp56
 70
     0
102
RTVSPropertyOp57
 70
     0
102
RTVSPropertyOp58
 70
     0
102
RTVSPropertyOp59
 70
     0
102
RTVSPropertyOp60
 70
     0
102
RTVSPropertyOp61
 70
     0
102
RTVSPropertyOp62
 70
     0
  0
XRECORD
  5
28F
102
{ACAD_REACTORS
330
28E
102
}
330
28E
100
AcDbXrecord
280
     1
102
RTVSPost2010Prop28
280
     0
102
RTVSPost2010PropOp28
 70
     1
102
RTVSPost2010Prop29
280
     1
102
RTVSPost2010PropOp29
 70
     1
102
RTVSPost2010Prop30
280
     1
102
RTVSPost2010PropOp30
 70
     1
102
RTVSPost2010Prop31
280
     0
102
RTVSPost2010PropOp31
 70
     1
102
RTVSPost2010Prop32
280
     0
102
RTVSPost2010PropOp32
 70
     1
102
RTVSPost2010Prop33
280
     0
102
RTVSPost2010PropOp33
 70
     1
102
RTVSPost2010Prop34
280
     0
102
RTVSPost2010PropOp34
 70
     1
102
RTVSPost2010Prop35
280
     0
102
RTVSPost2010PropOp35
 70
     1
102
RTVSPost2010Prop36
280
     0
102
RTVSPost2010PropOp36
 70
     1
102
RTVSPost2010Prop37
 90
       50
102
RTVSPost2010PropOp37
 70
     1
102
RTVSPost2010Prop38
140
0.0
102
RTVSPost2010PropOp38
 70
     1
102
RTVSPost2010Prop39
140
1.0
102
RTVSPost2010PropOp39
 70
     1
102
RTVSPost2010Prop40
 90
        0
102
RTVSPost2010PropOp40
 70
     1
102
RTVSPost2010Prop41ColorIndex
 90
       18
102
RTVSPost2010Prop41ColorRGB
 90
        0
102
RTVSPost2010PropOp41
 70
     1
102
RTVSPost2010Prop42
 90
       50
102
RTVSPost2010PropOp42
 70
     1
102
RTVSPost2010Prop43
 90
        3
102
RTVSPost2010PropOp43
 70
     1
102
RTVSPost2010Prop44ColorIndex
 90
        5
102
RTVSPost2010Prop44ColorRGB
 90
      255
102
RTVSPost2010PropOp44
 70
     1
102
RTVSPost2010Prop45
280
     0
102
RTVSPost2010PropOp45
 70
     1
102
RTVSPost2010Prop46
 90
       50
102
RTVSPost2010PropOp46
 70
     1
102
RTVSPost2010Prop47
 90
       50
102
RTVSPost2010PropOp47
 70
     1
102
RTVSPost2010Prop48
 90
       50
102
RTVSPost2010PropOp48
 70
     1
102
RTVSPost2010Prop49
280
     0
102
RTVSPost2010PropOp49
 70
     1
102
RTVSPost2010Prop50
 90
       50
102
RTVSPost2010PropOp50
 70
     1
102
RTVSPost2010Prop51ColorIndex
 90
      256
102
RTVSPost2010Prop51ColorRGB
 90
-16777216
102
RTVSPost2010PropOp51
 70
     0
102
RTVSPost2010Prop52
140
1.0
102
RTVSPost2010PropOp52
 70
     0
102
RTVSPost2010Prop53
 90
        2
102
RTVSPost2010PropOp53
 70
     1
102
RTVSPost2010Prop54
  1
strokes_ogs.tif
102
RTVSPost2010PropOp54
 70
     1
102
RTVSPost2010Prop55
280
     0
102
RTVSPost2010PropOp55
 70
     1
102
RTVSPost2010Prop56
140
1.0
102
RTVSPost2010PropOp56
 70
     1
102
RTVSPost2010Prop57
140
1.0
102
RTVSPost2010PropOp57
 70
     1
102
RTVSPropertyOp0
 70
     1
102
RTVSPropertyOp1
 70
     1
102
RTVSPropertyOp2
 70
     1
102
RTVSPropertyOp3
 70
     1
102
RTVSPropertyOp4
 70
     1
102
RTVSPropertyOp5
 70
     1
102
RTVSPropertyOp6
 70
     1
102
RTVSPropertyOp7
 70
     1
102
RTVSPropertyOp8
 70
     1
102
RTVSPropertyOp9
 70
     1
102
RTVSPropertyOp10
 70
     1
102
RTVSPropertyOp11
 70
     1
102
RTVSPropertyOp12
 70
     1
102
RTVSPropertyOp13
 70
     1
102
RTVSPropertyOp14
 70
     1
102
RTVSPropertyOp15
 70
     1
102
RTVSPropertyOp16
 70
     1
102
RTVSPropertyOp17
 70
     1
102
RTVSPropertyOp18
 70
     1
102
RTVSPropertyOp19
 70
     1
102
RTVSPropertyOp20
 70
     1
102
RTVSPropertyOp21
 70
     1
102
RTVSPropertyOp22
 70
     1
102
RTVSPropertyOp23
 70
     1
102
RTVSPropertyOp24
 70
     1
102
RTVSPropertyOp25
 70
     1
102
RTVSPropertyOp26
 70
     1
102
RTVSPropertyOp27
 70
     1
102
RTVSPropertyOp28
 70
     1
102
RTVSPropertyOp29
 70
     1
102
RTVSPropertyOp30
 70
     1
102
RTVSPropertyOp31
 70
     1
102
RTVSPropertyOp32
 70
     1
102
RTVSPropertyOp33
 70
     1
102
RTVSPropertyOp34
 70
     1
102
RTVSPropertyOp35
 70
     1
102
RTVSPropertyOp36
 70
     1
102
RTVSPropertyOp37
 70
     1
102
RTVSPropertyOp38
 70
     1
102
RTVSPropertyOp39
 70
     1
102
RTVSPropertyOp40
 70
     1
102
RTVSPropertyOp41
 70
     1
102
RTVSPropertyOp42
 70
     1
102
RTVSPropertyOp43
 70
     1
102
RTVSPropertyOp44
 70
     1
102
RTVSPropertyOp45
 70
     1
102
RTVSPropertyOp46
 70
     1
102
RTVSPropertyOp47
 70
     1
102
RTVSPropertyOp48
 70
     1
102
RTVSPropertyOp49
 70
     1
102
RTVSPropertyOp50
 70
     1
102
RTVSPropertyOp51
 70
     0
102
RTVSPropertyOp52
 70
     0
102
RTVSPropertyOp53
 70
     1
102
RTVSPropertyOp54
 70
     1
102
RTVSPropertyOp55
 70
     1
102
RTVSPropertyOp56
 70
     1
102
RTVSPropertyOp57
 70
     1
102
RTVSPropertyOp58
 70
     1
102
RTVSPropertyOp59
 70
     1
102
RTVSPropertyOp60
 70
     1
102
RTVSPropertyOp61
 70
     1
102
RTVSPropertyOp62
 70
     1
  0
XRECORD
  5
2A1
102
{ACAD_REACTORS
330
2A0
102
}
330
2A0
100
AcDbXrecord
280
     1
102
RTVSPost2010Prop28
280
     0
102
RTVSPost2010PropOp28
 70
     0
102
RTVSPost2010Prop29
280
     1
102
RTVSPost2010PropOp29
 70
     0
102
RTVSPost2010Prop30
280
     1
102
RTVSPost2010PropOp30
 70
     0
102
RTVSPost2010Prop31
280
     0
102
RTVSPost2010PropOp31
 70
     0
102
RTVSPost2010Prop32
280
     0
102
RTVSPost2010PropOp32
 70
     0
102
RTVSPost2010Prop33
280
     0
102
RTVSPost2010PropOp33
 70
     0
102
RTVSPost2010Prop34
280
     0
102
RTVSPost2010PropOp34
 70
     0
102
RTVSPost2010Prop35
280
     0
102
RTVSPost2010PropOp35
 70
     0
102
RTVSPost2010Prop36
280
     0
102
RTVSPost2010PropOp36
 70
     0
102
RTVSPost2010Prop37
 90
       50
102
RTVSPost2010PropOp37
 70
     0
102
RTVSPost2010Prop38
140
0.0
102
RTVSPost2010PropOp38
 70
     0
102
RTVSPost2010Prop39
140
1.0
102
RTVSPost2010PropOp39
 70
     0
102
RTVSPost2010Prop40
 90
        0
102
RTVSPost2010PropOp40
 70
     0
102
RTVSPost2010Prop41ColorIndex
 90
       18
102
RTVSPost2010Prop41ColorRGB
 90
        0
102
RTVSPost2010PropOp41
 70
     0
102
RTVSPost2010Prop42
 90
       50
102
RTVSPost2010PropOp42
 70
     0
102
RTVSPost2010Prop43
 90
        3
102
RTVSPost2010PropOp43
 70
     0
102
RTVSPost2010Prop44ColorIndex
 90
        5
102
RTVSPost2010Prop44ColorRGB
 90
      255
102
RTVSPost2010PropOp44
 70
     0
102
RTVSPost2010Prop45
280
     0
102
RTVSPost2010PropOp45
 70
     0
102
RTVSPost2010Prop46
 90
       50
102
RTVSPost2010PropOp46
 70
     0
102
RTVSPost2010Prop47
 90
       50
102
RTVSPost2010PropOp47
 70
     0
102
RTVSPost2010Prop48
 90
       50
102
RTVSPost2010PropOp48
 70
     0
102
RTVSPost2010Prop49
280
     0
102
RTVSPost2010PropOp49
 70
     0
102
RTVSPost2010Prop50
 90
       50
102
RTVSPost2010PropOp50
 70
     0
102
RTVSPost2010Prop51ColorIndex
 90
      256
102
RTVSPost2010Prop51ColorRGB
 90
-16777216
102
RTVSPost2010PropOp51
 70
     0
102
RTVSPost2010Prop52
140
1.0
102
RTVSPost2010PropOp52
 70
     0
102
RTVSPost2010Prop53
 90
        2
102
RTVSPost2010PropOp53
 70
     0
102
RTVSPost2010Prop54
  1
strokes_ogs.tif
102
RTVSPost2010PropOp54
 70
     0
102
RTVSPost2010Prop55
280
     0
102
RTVSPost2010PropOp55
 70
     0
102
RTVSPost2010Prop56
140
1.0
102
RTVSPost2010PropOp56
 70
     0
102
RTVSPost2010Prop57
140
1.0
102
RTVSPost2010PropOp57
 70
     0
102
RTVSPropertyOp0
 70
     0
102
RTVSPropertyOp1
 70
     0
102
RTVSPropertyOp2
 70
     0
102
RTVSPropertyOp3
 70
     0
102
RTVSPropertyOp4
 70
     0
102
RTVSPropertyOp5
 70
     0
102
RTVSPropertyOp6
 70
     0
102
RTVSPropertyOp7
 70
     0
102
RTVSPropertyOp8
 70
     0
102
RTVSPropertyOp9
 70
     0
102
RTVSPropertyOp10
 70
     0
102
RTVSPropertyOp11
 70
     0
102
RTVSPropertyOp12
 70
     0
102
RTVSPropertyOp13
 70
     0
102
RTVSPropertyOp14
 70
     2
102
RTVSPropertyOp15
 70
     0
102
RTVSPropertyOp16
 70
     0
102
RTVSPropertyOp17
 70
     0
102
RTVSPropertyOp18
 70
     0
102
RTVSPropertyOp19
 70
     0
102
RTVSPropertyOp20
 70
     0
102
RTVSPropertyOp21
 70
     0
102
RTVSPropertyOp22
 70
     0
102
RTVSPropertyOp23
 70
     0
102
RTVSPropertyOp24
 70
     0
102
RTVSPropertyOp25
 70
     0
102
RTVSPropertyOp26
 70
     0
102
RTVSPropertyOp27
 70
     0
102
RTVSPropertyOp28
 70
     0
102
RTVSPropertyOp29
 70
     0
102
RTVSPropertyOp30
 70
     0
102
RTVSPropertyOp31
 70
     0
102
RTVSPropertyOp32
 70
     0
102
RTVSPropertyOp33
 70
     0
102
RTVSPropertyOp34
 70
     0
102
RTVSPropertyOp35
 70
     0
102
RTVSPropertyOp36
 70
     0
102
RTVSPropertyOp37
 70
     0
102
RTVSPropertyOp38
 70
     0
102
RTVSPropertyOp39
 70
     0
102
RTVSPropertyOp40
 70
     0
102
RTVSPropertyOp41
 70
     0
102
RTVSPropertyOp42
 70
     0
102
RTVSPropertyOp43
 70
     0
102
RTVSPropertyOp44
 70
     0
102
RTVSPropertyOp45
 70
     0
102
RTVSPropertyOp46
 70
     0
102
RTVSPropertyOp47
 70
     0
102
RTVSPropertyOp48
 70
     0
102
RTVSPropertyOp49
 70
     0
102
RTVSPropertyOp50
 70
     0
102
RTVSPropertyOp51
 70
     0
102
RTVSPropertyOp52
 70
     0
102
RTVSPropertyOp53
 70
     0
102
RTVSPropertyOp54
 70
     0
102
RTVSPropertyOp55
 70
     0
102
RTVSPropertyOp56
 70
     0
102
RTVSPropertyOp57
 70
     0
102
RTVSPropertyOp58
 70
     0
102
RTVSPropertyOp59
 70
     0
102
RTVSPropertyOp60
 70
     0
102
RTVSPropertyOp61
 70
     0
102
RTVSPropertyOp62
 70
     0
  0
XRECORD
  5
287
102
{ACAD_REACTORS
330
286
102
}
330
286
100
AcDbXrecord
280
     1
102
RTVSPost2010Prop28
280
     0
102
RTVSPost2010PropOp28
 70
     1
102
RTVSPost2010Prop29
280
     1
102
RTVSPost2010PropOp29
 70
     1
102
RTVSPost2010Prop30
280
     1
102
RTVSPost2010PropOp30
 70
     1
102
RTVSPost2010Prop31
280
     0
102
RTVSPost2010PropOp31
 70
     1
102
RTVSPost2010Prop32
280
     0
102
RTVSPost2010PropOp32
 70
     1
102
RTVSPost2010Prop33
280
     0
102
RTVSPost2010PropOp33
 70
     1
102
RTVSPost2010Prop34
280
     0
102
RTVSPost2010PropOp34
 70
     1
102
RTVSPost2010Prop35
280
     0
102
RTVSPost2010PropOp35
 70
     1
102
RTVSPost2010Prop36
280
     0
102
RTVSPost2010PropOp36
 70
     1
102
RTVSPost2010Prop37
 90
       50
102
RTVSPost2010PropOp37
 70
     1
102
RTVSPost2010Prop38
140
0.0
102
RTVSPost2010PropOp38
 70
     1
102
RTVSPost2010Prop39
140
1.0
102
RTVSPost2010PropOp39
 70
     1
102
RTVSPost2010Prop40
 90
        0
102
RTVSPost2010PropOp40
 70
     1
102
RTVSPost2010Prop41ColorIndex
 90
       18
102
RTVSPost2010Prop41ColorRGB
 90
        0
102
RTVSPost2010PropOp41
 70
     1
102
RTVSPost2010Prop42
 90
       50
102
RTVSPost2010PropOp42
 70
     1
102
RTVSPost2010Prop43
 90
        3
102
RTVSPost2010PropOp43
 70
     1
102
RTVSPost2010Prop44ColorIndex
 90
        5
102
RTVSPost2010Prop44ColorRGB
 90
      255
102
RTVSPost2010PropOp44
 70
     1
102
RTVSPost2010Prop45
280
     0
102
RTVSPost2010PropOp45
 70
     1
102
RTVSPost2010Prop46
 90
       50
102
RTVSPost2010PropOp46
 70
     1
102
RTVSPost2010Prop47
 90
       50
102
RTVSPost2010PropOp47
 70
     1
102
RTVSPost2010Prop48
 90
       50
102
RTVSPost2010PropOp48
 70
     1
102
RTVSPost2010Prop49
280
     0
102
RTVSPost2010PropOp49
 70
     1
102
RTVSPost2010Prop50
 90
       50
102
RTVSPost2010PropOp50
 70
     1
102
RTVSPost2010Prop51ColorIndex
 90
      256
102
RTVSPost2010Prop51ColorRGB
 90
-16777216
102
RTVSPost2010PropOp51
 70
     0
102
RTVSPost2010Prop52
140
1.0
102
RTVSPost2010PropOp52
 70
     0
102
RTVSPost2010Prop53
 90
        2
102
RTVSPost2010PropOp53
 70
     1
102
RTVSPost2010Prop54
  1
strokes_ogs.tif
102
RTVSPost2010PropOp54
 70
     1
102
RTVSPost2010Prop55
280
     0
102
RTVSPost2010PropOp55
 70
     1
102
RTVSPost2010Prop56
140
1.0
102
RTVSPost2010PropOp56
 70
     1
102
RTVSPost2010Prop57
140
1.0
102
RTVSPost2010PropOp57
 70
     1
102
RTVSPropertyOp0
 70
     1
102
RTVSPropertyOp1
 70
     1
102
RTVSPropertyOp2
 70
     1
102
RTVSPropertyOp3
 70
     1
102
RTVSPropertyOp4
 70
     1
102
RTVSPropertyOp5
 70
     1
102
RTVSPropertyOp6
 70
     1
102
RTVSPropertyOp7
 70
     1
102
RTVSPropertyOp8
 70
     1
102
RTVSPropertyOp9
 70
     1
102
RTVSPropertyOp10
 70
     1
102
RTVSPropertyOp11
 70
     1
102
RTVSPropertyOp12
 70
     1
102
RTVSPropertyOp13
 70
     1
102
RTVSPropertyOp14
 70
     1
102
RTVSPropertyOp15
 70
     1
102
RTVSPropertyOp16
 70
     1
102
RTVSPropertyOp17
 70
     1
102
RTVSPropertyOp18
 70
     1
102
RTVSPropertyOp19
 70
     1
102
RTVSPropertyOp20
 70
     1
102
RTVSPropertyOp21
 70
     1
102
RTVSPropertyOp22
 70
     1
102
RTVSPropertyOp23
 70
     1
102
RTVSPropertyOp24
 70
     1
102
RTVSPropertyOp25
 70
     1
102
RTVSPropertyOp26
 70
     1
102
RTVSPropertyOp27
 70
     1
102
RTVSPropertyOp28
 70
     1
102
RTVSPropertyOp29
 70
     1
102
RTVSPropertyOp30
 70
     1
102
RTVSPropertyOp31
 70
     1
102
RTVSPropertyOp32
 70
     1
102
RTVSPropertyOp33
 70
     1
102
RTVSPropertyOp34
 70
     1
102
RTVSPropertyOp35
 70
     1
102
RTVSPropertyOp36
 70
     1
102
RTVSPropertyOp37
 70
     1
102
RTVSPropertyOp38
 70
     1
102
RTVSPropertyOp39
 70
     1
102
RTVSPropertyOp40
 70
     1
102
RTVSPropertyOp41
 70
     1
102
RTVSPropertyOp42
 70
     1
102
RTVSPropertyOp43
 70
     1
102
RTVSPropertyOp44
 70
     1
102
RTVSPropertyOp45
 70
     1
102
RTVSPropertyOp46
 70
     1
102
RTVSPropertyOp47
 70
     1
102
RTVSPropertyOp48
 70
     1
102
RTVSPropertyOp49
 70
     1
102
RTVSPropertyOp50
 70
     1
102
RTVSPropertyOp51
 70
     0
102
RTVSPropertyOp52
 70
     0
102
RTVSPropertyOp53
 70
     1
102
RTVSPropertyOp54
 70
     1
102
RTVSPropertyOp55
 70
     1
102
RTVSPropertyOp56
 70
     1
102
RTVSPropertyOp57
 70
     1
102
RTVSPropertyOp58
 70
     1
102
RTVSPropertyOp59
 70
     1
102
RTVSPropertyOp60
 70
     1
102
RTVSPropertyOp61
 70
     1
102
RTVSPropertyOp62
 70
     1
  0
XRECORD
  5
29D
102
{ACAD_REACTORS
330
29C
102
}
330
29C
100
AcDbXrecord
280
     1
102
RTVSPost2010Prop28
280
     0
102
RTVSPost2010PropOp28
 70
     1
102
RTVSPost2010Prop29
280
     1
102
RTVSPost2010PropOp29
 70
     1
102
RTVSPost2010Prop30
280
     1
102
RTVSPost2010PropOp30
 70
     1
102
RTVSPost2010Prop31
280
     0
102
RTVSPost2010PropOp31
 70
     1
102
RTVSPost2010Prop32
280
     0
102
RTVSPost2010PropOp32
 70
     1
102
RTVSPost2010Prop33
280
     0
102
RTVSPost2010PropOp33
 70
     1
102
RTVSPost2010Prop34
280
     0
102
RTVSPost2010PropOp34
 70
     1
102
RTVSPost2010Prop35
280
     0
102
RTVSPost2010PropOp35
 70
     1
102
RTVSPost2010Prop36
280
     0
102
RTVSPost2010PropOp36
 70
     1
102
RTVSPost2010Prop37
 90
       50
102
RTVSPost2010PropOp37
 70
     1
102
RTVSPost2010Prop38
140
0.0
102
RTVSPost2010PropOp38
 70
     1
102
RTVSPost2010Prop39
140
1.0
102
RTVSPost2010PropOp39
 70
     1
102
RTVSPost2010Prop40
 90
        0
102
RTVSPost2010PropOp40
 70
     1
102
RTVSPost2010Prop41ColorIndex
 90
       18
102
RTVSPost2010Prop41ColorRGB
 90
        0
102
RTVSPost2010PropOp41
 70
     1
102
RTVSPost2010Prop42
 90
       50
102
RTVSPost2010PropOp42
 70
     1
102
RTVSPost2010Prop43
 90
        3
102
RTVSPost2010PropOp43
 70
     1
102
RTVSPost2010Prop44ColorIndex
 90
        5
102
RTVSPost2010Prop44ColorRGB
 90
      255
102
RTVSPost2010PropOp44
 70
     1
102
RTVSPost2010Prop45
280
     0
102
RTVSPost2010PropOp45
 70
     1
102
RTVSPost2010Prop46
 90
       50
102
RTVSPost2010PropOp46
 70
     1
102
RTVSPost2010Prop47
 90
       50
102
RTVSPost2010PropOp47
 70
     1
102
RTVSPost2010Prop48
 90
       50
102
RTVSPost2010PropOp48
 70
     1
102
RTVSPost2010Prop49
280
     0
102
RTVSPost2010PropOp49
 70
     1
102
RTVSPost2010Prop50
 90
       50
102
RTVSPost2010PropOp50
 70
     1
102
RTVSPost2010Prop51ColorIndex
 90
      256
102
RTVSPost2010Prop51ColorRGB
 90
-16777216
102
RTVSPost2010PropOp51
 70
     0
102
RTVSPost2010Prop52
140
1.0
102
RTVSPost2010PropOp52
 70
     0
102
RTVSPost2010Prop53
 90
        2
102
RTVSPost2010PropOp53
 70
     1
102
RTVSPost2010Prop54
  1
strokes_ogs.tif
102
RTVSPost2010PropOp54
 70
     1
102
RTVSPost2010Prop55
280
     0
102
RTVSPost2010PropOp55
 70
     1
102
RTVSPost2010Prop56
140
1.0
102
RTVSPost2010PropOp56
 70
     1
102
RTVSPost2010Prop57
140
1.0
102
RTVSPost2010PropOp57
 70
     1
102
RTVSPropertyOp0
 70
     1
102
RTVSPropertyOp1
 70
     1
102
RTVSPropertyOp2
 70
     1
102
RTVSPropertyOp3
 70
     1
102
RTVSPropertyOp4
 70
     1
102
RTVSPropertyOp5
 70
     1
102
RTVSPropertyOp6
 70
     1
102
RTVSPropertyOp7
 70
     1
102
RTVSPropertyOp8
 70
     1
102
RTVSPropertyOp9
 70
     1
102
RTVSPropertyOp10
 70
     1
102
RTVSPropertyOp11
 70
     1
102
RTVSPropertyOp12
 70
     1
102
RTVSPropertyOp13
 70
     1
102
RTVSPropertyOp14
 70
     1
102
RTVSPropertyOp15
 70
     1
102
RTVSPropertyOp16
 70
     1
102
RTVSPropertyOp17
 70
     1
102
RTVSPropertyOp18
 70
     1
102
RTVSPropertyOp19
 70
     1
102
RTVSPropertyOp20
 70
     1
102
RTVSPropertyOp21
 70
     1
102
RTVSPropertyOp22
 70
     1
102
RTVSPropertyOp23
 70
     1
102
RTVSPropertyOp24
 70
     1
102
RTVSPropertyOp25
 70
     1
102
RTVSPropertyOp26
 70
     1
102
RTVSPropertyOp27
 70
     1
102
RTVSPropertyOp28
 70
     1
102
RTVSPropertyOp29
 70
     1
102
RTVSPropertyOp30
 70
     1
102
RTVSPropertyOp31
 70
     1
102
RTVSPropertyOp32
 70
     1
102
RTVSPropertyOp33
 70
     1
102
RTVSPropertyOp34
 70
     1
102
RTVSPropertyOp35
 70
     1
102
RTVSPropertyOp36
 70
     1
102
RTVSPropertyOp37
 70
     1
102
RTVSPropertyOp38
 70
     1
102
RTVSPropertyOp39
 70
     1
102
RTVSPropertyOp40
 70
     1
102
RTVSPropertyOp41
 70
     1
102
RTVSPropertyOp42
 70
     1
102
RTVSPropertyOp43
 70
     1
102
RTVSPropertyOp44
 70
     1
102
RTVSPropertyOp45
 70
     1
102
RTVSPropertyOp46
 70
     1
102
RTVSPropertyOp47
 70
     1
102
RTVSPropertyOp48
 70
     1
102
RTVSPropertyOp49
 70
     1
102
RTVSPropertyOp50
 70
     1
102
RTVSPropertyOp51
 70
     0
102
RTVSPropertyOp52
 70
     0
102
RTVSPropertyOp53
 70
     1
102
RTVSPropertyOp54
 70
     1
102
RTVSPropertyOp55
 70
     1
102
RTVSPropertyOp56
 70
     1
102
RTVSPropertyOp57
 70
     1
102
RTVSPropertyOp58
 70
     1
102
RTVSPropertyOp59
 70
     1
102
RTVSPropertyOp60
 70
     1
102
RTVSPropertyOp61
 70
     1
102
RTVSPropertyOp62
 70
     1
  0
XRECORD
  5
29B
102
{ACAD_REACTORS
330
29A
102
}
330
29A
100
AcDbXrecord
280
     1
102
RTVSPost2010Prop28
280
     0
102
RTVSPost2010PropOp28
 70
     1
102
RTVSPost2010Prop29
280
     1
102
RTVSPost2010PropOp29
 70
     1
102
RTVSPost2010Prop30
280
     1
102
RTVSPost2010PropOp30
 70
     1
102
RTVSPost2010Prop31
280
     0
102
RTVSPost2010PropOp31
 70
     1
102
RTVSPost2010Prop32
280
     0
102
RTVSPost2010PropOp32
 70
     1
102
RTVSPost2010Prop33
280
     0
102
RTVSPost2010PropOp33
 70
     1
102
RTVSPost2010Prop34
280
     0
102
RTVSPost2010PropOp34
 70
     1
102
RTVSPost2010Prop35
280
     0
102
RTVSPost2010PropOp35
 70
     1
102
RTVSPost2010Prop36
280
     0
102
RTVSPost2010PropOp36
 70
     1
102
RTVSPost2010Prop37
 90
       50
102
RTVSPost2010PropOp37
 70
     1
102
RTVSPost2010Prop38
140
0.0
102
RTVSPost2010PropOp38
 70
     1
102
RTVSPost2010Prop39
140
1.0
102
RTVSPost2010PropOp39
 70
     1
102
RTVSPost2010Prop40
 90
        0
102
RTVSPost2010PropOp40
 70
     1
102
RTVSPost2010Prop41ColorIndex
 90
       18
102
RTVSPost2010Prop41ColorRGB
 90
        0
102
RTVSPost2010PropOp41
 70
     1
102
RTVSPost2010Prop42
 90
       50
102
RTVSPost2010PropOp42
 70
     1
102
RTVSPost2010Prop43
 90
        3
102
RTVSPost2010PropOp43
 70
     1
102
RTVSPost2010Prop44ColorIndex
 90
        5
102
RTVSPost2010Prop44ColorRGB
 90
      255
102
RTVSPost2010PropOp44
 70
     1
102
RTVSPost2010Prop45
280
     0
102
RTVSPost2010PropOp45
 70
     1
102
RTVSPost2010Prop46
 90
       50
102
RTVSPost2010PropOp46
 70
     1
102
RTVSPost2010Prop47
 90
       50
102
RTVSPost2010PropOp47
 70
     1
102
RTVSPost2010Prop48
 90
       50
102
RTVSPost2010PropOp48
 70
     1
102
RTVSPost2010Prop49
280
     0
102
RTVSPost2010PropOp49
 70
     1
102
RTVSPost2010Prop50
 90
       50
102
RTVSPost2010PropOp50
 70
     1
102
RTVSPost2010Prop51ColorIndex
 90
      256
102
RTVSPost2010Prop51ColorRGB
 90
-16777216
102
RTVSPost2010PropOp51
 70
     0
102
RTVSPost2010Prop52
140
1.0
102
RTVSPost2010PropOp52
 70
     0
102
RTVSPost2010Prop53
 90
        2
102
RTVSPost2010PropOp53
 70
     1
102
RTVSPost2010Prop54
  1
strokes_ogs.tif
102
RTVSPost2010PropOp54
 70
     1
102
RTVSPost2010Prop55
280
     0
102
RTVSPost2010PropOp55
 70
     1
102
RTVSPost2010Prop56
140
1.0
102
RTVSPost2010PropOp56
 70
     1
102
RTVSPost2010Prop57
140
1.0
102
RTVSPost2010PropOp57
 70
     1
102
RTVSPropertyOp0
 70
     1
102
RTVSPropertyOp1
 70
     1
102
RTVSPropertyOp2
 70
     1
102
RTVSPropertyOp3
 70
     1
102
RTVSPropertyOp4
 70
     1
102
RTVSPropertyOp5
 70
     1
102
RTVSPropertyOp6
 70
     1
102
RTVSPropertyOp7
 70
     1
102
RTVSPropertyOp8
 70
     1
102
RTVSPropertyOp9
 70
     1
102
RTVSPropertyOp10
 70
     1
102
RTVSPropertyOp11
 70
     1
102
RTVSPropertyOp12
 70
     1
102
RTVSPropertyOp13
 70
     1
102
RTVSPropertyOp14
 70
     1
102
RTVSPropertyOp15
 70
     1
102
RTVSPropertyOp16
 70
     1
102
RTVSPropertyOp17
 70
     1
102
RTVSPropertyOp18
 70
     1
102
RTVSPropertyOp19
 70
     1
102
RTVSPropertyOp20
 70
     1
102
RTVSPropertyOp21
 70
     1
102
RTVSPropertyOp22
 70
     1
102
RTVSPropertyOp23
 70
     1
102
RTVSPropertyOp24
 70
     1
102
RTVSPropertyOp25
 70
     1
102
RTVSPropertyOp26
 70
     1
102
RTVSPropertyOp27
 70
     1
102
RTVSPropertyOp28
 70
     1
102
RTVSPropertyOp29
 70
     1
102
RTVSPropertyOp30
 70
     1
102
RTVSPropertyOp31
 70
     1
102
RTVSPropertyOp32
 70
     1
102
RTVSPropertyOp33
 70
     1
102
RTVSPropertyOp34
 70
     1
102
RTVSPropertyOp35
 70
     1
102
RTVSPropertyOp36
 70
     1
102
RTVSPropertyOp37
 70
     1
102
RTVSPropertyOp38
 70
     1
102
RTVSPropertyOp39
 70
     1
102
RTVSPropertyOp40
 70
     1
102
RTVSPropertyOp41
 70
     1
102
RTVSPropertyOp42
 70
     1
102
RTVSPropertyOp43
 70
     1
102
RTVSPropertyOp44
 70
     1
102
RTVSPropertyOp45
 70
     1
102
RTVSPropertyOp46
 70
     1
102
RTVSPropertyOp47
 70
     1
102
RTVSPropertyOp48
 70
     1
102
RTVSPropertyOp49
 70
     1
102
RTVSPropertyOp50
 70
     1
102
RTVSPropertyOp51
 70
     0
102
RTVSPropertyOp52
 70
     0
102
RTVSPropertyOp53
 70
     1
102
RTVSPropertyOp54
 70
     1
102
RTVSPropertyOp55
 70
     1
102
RTVSPropertyOp56
 70
     1
102
RTVSPropertyOp57
 70
     1
102
RTVSPropertyOp58
 70
     1
102
RTVSPropertyOp59
 70
     1
102
RTVSPropertyOp60
 70
     1
102
RTVSPropertyOp61
 70
     1
102
RTVSPropertyOp62
 70
     1
  0
XRECORD
  5
295
102
{ACAD_REACTORS
330
294
102
}
330
294
100
AcDbXrecord
280
     1
102
RTVSPost2010Prop28
280
     0
102
RTVSPost2010PropOp28
 70
     1
102
RTVSPost2010Prop29
280
     1
102
RTVSPost2010PropOp29
 70
     1
102
RTVSPost2010Prop30
280
     1
102
RTVSPost2010PropOp30
 70
     1
102
RTVSPost2010Prop31
280
     0
102
RTVSPost2010PropOp31
 70
     1
102
RTVSPost2010Prop32
280
     0
102
RTVSPost2010PropOp32
 70
     1
102
RTVSPost2010Prop33
280
     0
102
RTVSPost2010PropOp33
 70
     1
102
RTVSPost2010Prop34
280
     0
102
RTVSPost2010PropOp34
 70
     1
102
RTVSPost2010Prop35
280
     0
102
RTVSPost2010PropOp35
 70
     1
102
RTVSPost2010Prop36
280
     0
102
RTVSPost2010PropOp36
 70
     1
102
RTVSPost2010Prop37
 90
       50
102
RTVSPost2010PropOp37
 70
     1
102
RTVSPost2010Prop38
140
0.0
102
RTVSPost2010PropOp38
 70
     1
102
RTVSPost2010Prop39
140
1.0
102
RTVSPost2010PropOp39
 70
     1
102
RTVSPost2010Prop40
 90
        0
102
RTVSPost2010PropOp40
 70
     1
102
RTVSPost2010Prop41ColorIndex
 90
       18
102
RTVSPost2010Prop41ColorRGB
 90
        0
102
RTVSPost2010PropOp41
 70
     1
102
RTVSPost2010Prop42
 90
       50
102
RTVSPost2010PropOp42
 70
     1
102
RTVSPost2010Prop43
 90
        3
102
RTVSPost2010PropOp43
 70
     1
102
RTVSPost2010Prop44ColorIndex
 90
        5
102
RTVSPost2010Prop44ColorRGB
 90
      255
102
RTVSPost2010PropOp44
 70
     1
102
RTVSPost2010Prop45
280
     0
102
RTVSPost2010PropOp45
 70
     1
102
RTVSPost2010Prop46
 90
       50
102
RTVSPost2010PropOp46
 70
     1
102
RTVSPost2010Prop47
 90
       50
102
RTVSPost2010PropOp47
 70
     1
102
RTVSPost2010Prop48
 90
       50
102
RTVSPost2010PropOp48
 70
     1
102
RTVSPost2010Prop49
280
     0
102
RTVSPost2010PropOp49
 70
     1
102
RTVSPost2010Prop50
 90
       50
102
RTVSPost2010PropOp50
 70
     1
102
RTVSPost2010Prop51ColorIndex
 90
      256
102
RTVSPost2010Prop51ColorRGB
 90
-16777216
102
RTVSPost2010PropOp51
 70
     0
102
RTVSPost2010Prop52
140
1.0
102
RTVSPost2010PropOp52
 70
     0
102
RTVSPost2010Prop53
 90
        2
102
RTVSPost2010PropOp53
 70
     1
102
RTVSPost2010Prop54
  1
strokes_ogs.tif
102
RTVSPost2010PropOp54
 70
     1
102
RTVSPost2010Prop55
280
     0
102
RTVSPost2010PropOp55
 70
     1
102
RTVSPost2010Prop56
140
1.0
102
RTVSPost2010PropOp56
 70
     1
102
RTVSPost2010Prop57
140
1.0
102
RTVSPost2010PropOp57
 70
     1
102
RTVSPropertyOp0
 70
     1
102
RTVSPropertyOp1
 70
     1
102
RTVSPropertyOp2
 70
     1
102
RTVSPropertyOp3
 70
     1
102
RTVSPropertyOp4
 70
     1
102
RTVSPropertyOp5
 70
     1
102
RTVSPropertyOp6
 70
     1
102
RTVSPropertyOp7
 70
     1
102
RTVSPropertyOp8
 70
     1
102
RTVSPropertyOp9
 70
     1
102
RTVSPropertyOp10
 70
     1
102
RTVSPropertyOp11
 70
     1
102
RTVSPropertyOp12
 70
     1
102
RTVSPropertyOp13
 70
     1
102
RTVSPropertyOp14
 70
     1
102
RTVSPropertyOp15
 70
     1
102
RTVSPropertyOp16
 70
     1
102
RTVSPropertyOp17
 70
     1
102
RTVSPropertyOp18
 70
     1
102
RTVSPropertyOp19
 70
     1
102
RTVSPropertyOp20
 70
     1
102
RTVSPropertyOp21
 70
     1
102
RTVSPropertyOp22
 70
     1
102
RTVSPropertyOp23
 70
     1
102
RTVSPropertyOp24
 70
     1
102
RTVSPropertyOp25
 70
     1
102
RTVSPropertyOp26
 70
     1
102
RTVSPropertyOp27
 70
     1
102
RTVSPropertyOp28
 70
     1
102
RTVSPropertyOp29
 70
     1
102
RTVSPropertyOp30
 70
     1
102
RTVSPropertyOp31
 70
     1
102
RTVSPropertyOp32
 70
     1
102
RTVSPropertyOp33
 70
     1
102
RTVSPropertyOp34
 70
     1
102
RTVSPropertyOp35
 70
     1
102
RTVSPropertyOp36
 70
     1
102
RTVSPropertyOp37
 70
     1
102
RTVSPropertyOp38
 70
     1
102
RTVSPropertyOp39
 70
     1
102
RTVSPropertyOp40
 70
     1
102
RTVSPropertyOp41
 70
     1
102
RTVSPropertyOp42
 70
     1
102
RTVSPropertyOp43
 70
     1
102
RTVSPropertyOp44
 70
     1
102
RTVSPropertyOp45
 70
     1
102
RTVSPropertyOp46
 70
     1
102
RTVSPropertyOp47
 70
     1
102
RTVSPropertyOp48
 70
     1
102
RTVSPropertyOp49
 70
     1
102
RTVSPropertyOp50
 70
     1
102
RTVSPropertyOp51
 70
     0
102
RTVSPropertyOp52
 70
     0
102
RTVSPropertyOp53
 70
     1
102
RTVSPropertyOp54
 70
     1
102
RTVSPropertyOp55
 70
     1
102
RTVSPropertyOp56
 70
     1
102
RTVSPropertyOp57
 70
     1
102
RTVSPropertyOp58
 70
     1
102
RTVSPropertyOp59
 70
     1
102
RTVSPropertyOp60
 70
     1
102
RTVSPropertyOp61
 70
     1
102
RTVSPropertyOp62
 70
     1
  0
XRECORD
  5
297
102
{ACAD_REACTORS
330
296
102
}
330
296
100
AcDbXrecord
280
     1
102
RTVSPost2010Prop28
280
     0
102
RTVSPost2010PropOp28
 70
     1
102
RTVSPost2010Prop29
280
     1
102
RTVSPost2010PropOp29
 70
     1
102
RTVSPost2010Prop30
280
     1
102
RTVSPost2010PropOp30
 70
     1
102
RTVSPost2010Prop31
280
     0
102
RTVSPost2010PropOp31
 70
     1
102
RTVSPost2010Prop32
280
     0
102
RTVSPost2010PropOp32
 70
     1
102
RTVSPost2010Prop33
280
     0
102
RTVSPost2010PropOp33
 70
     1
102
RTVSPost2010Prop34
280
     0
102
RTVSPost2010PropOp34
 70
     1
102
RTVSPost2010Prop35
280
     0
102
RTVSPost2010PropOp35
 70
     1
102
RTVSPost2010Prop36
280
     0
102
RTVSPost2010PropOp36
 70
     1
102
RTVSPost2010Prop37
 90
       50
102
RTVSPost2010PropOp37
 70
     1
102
RTVSPost2010Prop38
140
0.0
102
RTVSPost2010PropOp38
 70
     1
102
RTVSPost2010Prop39
140
1.0
102
RTVSPost2010PropOp39
 70
     1
102
RTVSPost2010Prop40
 90
        0
102
RTVSPost2010PropOp40
 70
     1
102
RTVSPost2010Prop41ColorIndex
 90
       18
102
RTVSPost2010Prop41ColorRGB
 90
        0
102
RTVSPost2010PropOp41
 70
     1
102
RTVSPost2010Prop42
 90
       50
102
RTVSPost2010PropOp42
 70
     1
102
RTVSPost2010Prop43
 90
        3
102
RTVSPost2010PropOp43
 70
     1
102
RTVSPost2010Prop44ColorIndex
 90
        5
102
RTVSPost2010Prop44ColorRGB
 90
      255
102
RTVSPost2010PropOp44
 70
     1
102
RTVSPost2010Prop45
280
     0
102
RTVSPost2010PropOp45
 70
     1
102
RTVSPost2010Prop46
 90
       50
102
RTVSPost2010PropOp46
 70
     1
102
RTVSPost2010Prop47
 90
       50
102
RTVSPost2010PropOp47
 70
     1
102
RTVSPost2010Prop48
 90
       50
102
RTVSPost2010PropOp48
 70
     1
102
RTVSPost2010Prop49
280
     0
102
RTVSPost2010PropOp49
 70
     1
102
RTVSPost2010Prop50
 90
       50
102
RTVSPost2010PropOp50
 70
     1
102
RTVSPost2010Prop51ColorIndex
 90
      256
102
RTVSPost2010Prop51ColorRGB
 90
-16777216
102
RTVSPost2010PropOp51
 70
     0
102
RTVSPost2010Prop52
140
1.0
102
RTVSPost2010PropOp52
 70
     0
102
RTVSPost2010Prop53
 90
        2
102
RTVSPost2010PropOp53
 70
     1
102
RTVSPost2010Prop54
  1
strokes_ogs.tif
102
RTVSPost2010PropOp54
 70
     1
102
RTVSPost2010Prop55
280
     0
102
RTVSPost2010PropOp55
 70
     1
102
RTVSPost2010Prop56
140
1.0
102
RTVSPost2010PropOp56
 70
     1
102
RTVSPost2010Prop57
140
1.0
102
RTVSPost2010PropOp57
 70
     1
102
RTVSPropertyOp0
 70
     1
102
RTVSPropertyOp1
 70
     1
102
RTVSPropertyOp2
 70
     1
102
RTVSPropertyOp3
 70
     1
102
RTVSPropertyOp4
 70
     1
102
RTVSPropertyOp5
 70
     1
102
RTVSPropertyOp6
 70
     1
102
RTVSPropertyOp7
 70
     1
102
RTVSPropertyOp8
 70
     1
102
RTVSPropertyOp9
 70
     1
102
RTVSPropertyOp10
 70
     1
102
RTVSPropertyOp11
 70
     1
102
RTVSPropertyOp12
 70
     1
102
RTVSPropertyOp13
 70
     1
102
RTVSPropertyOp14
 70
     1
102
RTVSPropertyOp15
 70
     1
102
RTVSPropertyOp16
 70
     1
102
RTVSPropertyOp17
 70
     1
102
RTVSPropertyOp18
 70
     1
102
RTVSPropertyOp19
 70
     1
102
RTVSPropertyOp20
 70
     1
102
RTVSPropertyOp21
 70
     1
102
RTVSPropertyOp22
 70
     1
102
RTVSPropertyOp23
 70
     1
102
RTVSPropertyOp24
 70
     1
102
RTVSPropertyOp25
 70
     1
102
RTVSPropertyOp26
 70
     1
102
RTVSPropertyOp27
 70
     1
102
RTVSPropertyOp28
 70
     1
102
RTVSPropertyOp29
 70
     1
102
RTVSPropertyOp30
 70
     1
102
RTVSPropertyOp31
 70
     1
102
RTVSPropertyOp32
 70
     1
102
RTVSPropertyOp33
 70
     1
102
RTVSPropertyOp34
 70
     1
102
RTVSPropertyOp35
 70
     1
102
RTVSPropertyOp36
 70
     1
102
RTVSPropertyOp37
 70
     1
102
RTVSPropertyOp38
 70
     1
102
RTVSPropertyOp39
 70
     1
102
RTVSPropertyOp40
 70
     1
102
RTVSPropertyOp41
 70
     1
102
RTVSPropertyOp42
 70
     1
102
RTVSPropertyOp43
 70
     1
102
RTVSPropertyOp44
 70
     1
102
RTVSPropertyOp45
 70
     1
102
RTVSPropertyOp46
 70
     1
102
RTVSPropertyOp47
 70
     1
102
RTVSPropertyOp48
 70
     1
102
RTVSPropertyOp49
 70
     1
102
RTVSPropertyOp50
 70
     1
102
RTVSPropertyOp51
 70
     0
102
RTVSPropertyOp52
 70
     0
102
RTVSPropertyOp53
 70
     1
102
RTVSPropertyOp54
 70
     1
102
RTVSPropertyOp55
 70
     1
102
RTVSPropertyOp56
 70
     1
102
RTVSPropertyOp57
 70
     1
102
RTVSPropertyOp58
 70
     1
102
RTVSPropertyOp59
 70
     1
102
RTVSPropertyOp60
 70
     1
102
RTVSPropertyOp61
 70
     1
102
RTVSPropertyOp62
 70
     1
  0
XRECORD
  5
28D
102
{ACAD_REACTORS
330
28C
102
}
330
28C
100
AcDbXrecord
280
     1
102
RTVSPost2010Prop28
280
     0
102
RTVSPost2010PropOp28
 70
     1
102
RTVSPost2010Prop29
280
     1
102
RTVSPost2010PropOp29
 70
     1
102
RTVSPost2010Prop30
280
     1
102
RTVSPost2010PropOp30
 70
     1
102
RTVSPost2010Prop31
280
     0
102
RTVSPost2010PropOp31
 70
     1
102
RTVSPost2010Prop32
280
     0
102
RTVSPost2010PropOp32
 70
     1
102
RTVSPost2010Prop33
280
     0
102
RTVSPost2010PropOp33
 70
     1
102
RTVSPost2010Prop34
280
     0
102
RTVSPost2010PropOp34
 70
     1
102
RTVSPost2010Prop35
280
     0
102
RTVSPost2010PropOp35
 70
     1
102
RTVSPost2010Prop36
280
     0
102
RTVSPost2010PropOp36
 70
     1
102
RTVSPost2010Prop37
 90
       50
102
RTVSPost2010PropOp37
 70
     1
102
RTVSPost2010Prop38
140
0.0
102
RTVSPost2010PropOp38
 70
     1
102
RTVSPost2010Prop39
140
1.0
102
RTVSPost2010PropOp39
 70
     1
102
RTVSPost2010Prop40
 90
        0
102
RTVSPost2010PropOp40
 70
     1
102
RTVSPost2010Prop41ColorIndex
 90
       18
102
RTVSPost2010Prop41ColorRGB
 90
        0
102
RTVSPost2010PropOp41
 70
     1
102
RTVSPost2010Prop42
 90
       50
102
RTVSPost2010PropOp42
 70
     1
102
RTVSPost2010Prop43
 90
        3
102
RTVSPost2010PropOp43
 70
     1
102
RTVSPost2010Prop44ColorIndex
 90
        5
102
RTVSPost2010Prop44ColorRGB
 90
      255
102
RTVSPost2010PropOp44
 70
     1
102
RTVSPost2010Prop45
280
     0
102
RTVSPost2010PropOp45
 70
     1
102
RTVSPost2010Prop46
 90
       50
102
RTVSPost2010PropOp46
 70
     1
102
RTVSPost2010Prop47
 90
       50
102
RTVSPost2010PropOp47
 70
     1
102
RTVSPost2010Prop48
 90
       50
102
RTVSPost2010PropOp48
 70
     1
102
RTVSPost2010Prop49
280
     0
102
RTVSPost2010PropOp49
 70
     1
102
RTVSPost2010Prop50
 90
       50
102
RTVSPost2010PropOp50
 70
     1
102
RTVSPost2010Prop51ColorIndex
 90
      256
102
RTVSPost2010Prop51ColorRGB
 90
-16777216
102
RTVSPost2010PropOp51
 70
     0
102
RTVSPost2010Prop52
140
1.0
102
RTVSPost2010PropOp52
 70
     0
102
RTVSPost2010Prop53
 90
        2
102
RTVSPost2010PropOp53
 70
     1
102
RTVSPost2010Prop54
  1
strokes_ogs.tif
102
RTVSPost2010PropOp54
 70
     1
102
RTVSPost2010Prop55
280
     0
102
RTVSPost2010PropOp55
 70
     1
102
RTVSPost2010Prop56
140
1.0
102
RTVSPost2010PropOp56
 70
     1
102
RTVSPost2010Prop57
140
1.0
102
RTVSPost2010PropOp57
 70
     1
102
RTVSPropertyOp0
 70
     1
102
RTVSPropertyOp1
 70
     1
102
RTVSPropertyOp2
 70
     1
102
RTVSPropertyOp3
 70
     1
102
RTVSPropertyOp4
 70
     1
102
RTVSPropertyOp5
 70
     1
102
RTVSPropertyOp6
 70
     1
102
RTVSPropertyOp7
 70
     1
102
RTVSPropertyOp8
 70
     1
102
RTVSPropertyOp9
 70
     1
102
RTVSPropertyOp10
 70
     1
102
RTVSPropertyOp11
 70
     1
102
RTVSPropertyOp12
 70
     1
102
RTVSPropertyOp13
 70
     1
102
RTVSPropertyOp14
 70
     1
102
RTVSPropertyOp15
 70
     1
102
RTVSPropertyOp16
 70
     1
102
RTVSPropertyOp17
 70
     1
102
RTVSPropertyOp18
 70
     1
102
RTVSPropertyOp19
 70
     1
102
RTVSPropertyOp20
 70
     1
102
RTVSPropertyOp21
 70
     1
102
RTVSPropertyOp22
 70
     1
102
RTVSPropertyOp23
 70
     1
102
RTVSPropertyOp24
 70
     1
102
RTVSPropertyOp25
 70
     1
102
RTVSPropertyOp26
 70
     1
102
RTVSPropertyOp27
 70
     1
102
RTVSPropertyOp28
 70
     1
102
RTVSPropertyOp29
 70
     1
102
RTVSPropertyOp30
 70
     1
102
RTVSPropertyOp31
 70
     1
102
RTVSPropertyOp32
 70
     1
102
RTVSPropertyOp33
 70
     1
102
RTVSPropertyOp34
 70
     1
102
RTVSPropertyOp35
 70
     1
102
RTVSPropertyOp36
 70
     1
102
RTVSPropertyOp37
 70
     1
102
RTVSPropertyOp38
 70
     1
102
RTVSPropertyOp39
 70
     1
102
RTVSPropertyOp40
 70
     1
102
RTVSPropertyOp41
 70
     1
102
RTVSPropertyOp42
 70
     1
102
RTVSPropertyOp43
 70
     1
102
RTVSPropertyOp44
 70
     1
102
RTVSPropertyOp45
 70
     1
102
RTVSPropertyOp46
 70
     1
102
RTVSPropertyOp47
 70
     1
102
RTVSPropertyOp48
 70
     1
102
RTVSPropertyOp49
 70
     1
102
RTVSPropertyOp50
 70
     1
102
RTVSPropertyOp51
 70
     0
102
RTVSPropertyOp52
 70
     0
102
RTVSPropertyOp53
 70
     1
102
RTVSPropertyOp54
 70
     1
102
RTVSPropertyOp55
 70
     1
102
RTVSPropertyOp56
 70
     1
102
RTVSPropertyOp57
 70
     1
102
RTVSPropertyOp58
 70
     1
102
RTVSPropertyOp59
 70
     1
102
RTVSPropertyOp60
 70
     1
102
RTVSPropertyOp61
 70
     1
102
RTVSPropertyOp62
 70
     1
  0
XRECORD
  5
281
102
{ACAD_REACTORS
330
280
102
}
330
280
100
AcDbXrecord
280
     1
102
RTVSPost2010Prop28
280
     0
102
RTVSPost2010PropOp28
 70
     1
102
RTVSPost2010Prop29
280
     1
102
RTVSPost2010PropOp29
 70
     1
102
RTVSPost2010Prop30
280
     1
102
RTVSPost2010PropOp30
 70
     1
102
RTVSPost2010Prop31
280
     0
102
RTVSPost2010PropOp31
 70
     1
102
RTVSPost2010Prop32
280
     0
102
RTVSPost2010PropOp32
 70
     1
102
RTVSPost2010Prop33
280
     0
102
RTVSPost2010PropOp33
 70
     1
102
RTVSPost2010Prop34
280
     0
102
RTVSPost2010PropOp34
 70
     1
102
RTVSPost2010Prop35
280
     0
102
RTVSPost2010PropOp35
 70
     1
102
RTVSPost2010Prop36
280
     0
102
RTVSPost2010PropOp36
 70
     1
102
RTVSPost2010Prop37
 90
       50
102
RTVSPost2010PropOp37
 70
     1
102
RTVSPost2010Prop38
140
0.0
102
RTVSPost2010PropOp38
 70
     1
102
RTVSPost2010Prop39
140
1.0
102
RTVSPost2010PropOp39
 70
     1
102
RTVSPost2010Prop40
 90
        0
102
RTVSPost2010PropOp40
 70
     1
102
RTVSPost2010Prop41ColorIndex
 90
       18
102
RTVSPost2010Prop41ColorRGB
 90
        0
102
RTVSPost2010PropOp41
 70
     1
102
RTVSPost2010Prop42
 90
       50
102
RTVSPost2010PropOp42
 70
     1
102
RTVSPost2010Prop43
 90
        3
102
RTVSPost2010PropOp43
 70
     1
102
RTVSPost2010Prop44ColorIndex
 90
        5
102
RTVSPost2010Prop44ColorRGB
 90
      255
102
RTVSPost2010PropOp44
 70
     1
102
RTVSPost2010Prop45
280
     0
102
RTVSPost2010PropOp45
 70
     1
102
RTVSPost2010Prop46
 90
       50
102
RTVSPost2010PropOp46
 70
     1
102
RTVSPost2010Prop47
 90
       50
102
RTVSPost2010PropOp47
 70
     1
102
RTVSPost2010Prop48
 90
       50
102
RTVSPost2010PropOp48
 70
     1
102
RTVSPost2010Prop49
280
     0
102
RTVSPost2010PropOp49
 70
     1
102
RTVSPost2010Prop50
 90
       50
102
RTVSPost2010PropOp50
 70
     1
102
RTVSPost2010Prop51ColorIndex
 90
      256
102
RTVSPost2010Prop51ColorRGB
 90
-16777216
102
RTVSPost2010PropOp51
 70
     0
102
RTVSPost2010Prop52
140
1.0
102
RTVSPost2010PropOp52
 70
     0
102
RTVSPost2010Prop53
 90
        2
102
RTVSPost2010PropOp53
 70
     1
102
RTVSPost2010Prop54
  1
strokes_ogs.tif
102
RTVSPost2010PropOp54
 70
     1
102
RTVSPost2010Prop55
280
     0
102
RTVSPost2010PropOp55
 70
     1
102
RTVSPost2010Prop56
140
1.0
102
RTVSPost2010PropOp56
 70
     1
102
RTVSPost2010Prop57
140
1.0
102
RTVSPost2010PropOp57
 70
     1
102
RTVSPropertyOp0
 70
     1
102
RTVSPropertyOp1
 70
     1
102
RTVSPropertyOp2
 70
     1
102
RTVSPropertyOp3
 70
     1
102
RTVSPropertyOp4
 70
     1
102
RTVSPropertyOp5
 70
     1
102
RTVSPropertyOp6
 70
     1
102
RTVSPropertyOp7
 70
     1
102
RTVSPropertyOp8
 70
     1
102
RTVSPropertyOp9
 70
     1
102
RTVSPropertyOp10
 70
     1
102
RTVSPropertyOp11
 70
     1
102
RTVSPropertyOp12
 70
     1
102
RTVSPropertyOp13
 70
     1
102
RTVSPropertyOp14
 70
     1
102
RTVSPropertyOp15
 70
     1
102
RTVSPropertyOp16
 70
     1
102
RTVSPropertyOp17
 70
     1
102
RTVSPropertyOp18
 70
     1
102
RTVSPropertyOp19
 70
     1
102
RTVSPropertyOp20
 70
     1
102
RTVSPropertyOp21
 70
     1
102
RTVSPropertyOp22
 70
     1
102
RTVSPropertyOp23
 70
     1
102
RTVSPropertyOp24
 70
     1
102
RTVSPropertyOp25
 70
     1
102
RTVSPropertyOp26
 70
     1
102
RTVSPropertyOp27
 70
     1
102
RTVSPropertyOp28
 70
     1
102
RTVSPropertyOp29
 70
     1
102
RTVSPropertyOp30
 70
     1
102
RTVSPropertyOp31
 70
     1
102
RTVSPropertyOp32
 70
     1
102
RTVSPropertyOp33
 70
     1
102
RTVSPropertyOp34
 70
     1
102
RTVSPropertyOp35
 70
     1
102
RTVSPropertyOp36
 70
     1
102
RTVSPropertyOp37
 70
     1
102
RTVSPropertyOp38
 70
     1
102
RTVSPropertyOp39
 70
     1
102
RTVSPropertyOp40
 70
     1
102
RTVSPropertyOp41
 70
     1
102
RTVSPropertyOp42
 70
     1
102
RTVSPropertyOp43
 70
     1
102
RTVSPropertyOp44
 70
     1
102
RTVSPropertyOp45
 70
     1
102
RTVSPropertyOp46
 70
     1
102
RTVSPropertyOp47
 70
     1
102
RTVSPropertyOp48
 70
     1
102
RTVSPropertyOp49
 70
     1
102
RTVSPropertyOp50
 70
     1
102
RTVSPropertyOp51
 70
     0
102
RTVSPropertyOp52
 70
     0
102
RTVSPropertyOp53
 70
     1
102
RTVSPropertyOp54
 70
     1
102
RTVSPropertyOp55
 70
     1
102
RTVSPropertyOp56
 70
     1
102
RTVSPropertyOp57
 70
     1
102
RTVSPropertyOp58
 70
     1
102
RTVSPropertyOp59
 70
     1
102
RTVSPropertyOp60
 70
     1
102
RTVSPropertyOp61
 70
     1
102
RTVSPropertyOp62
 70
     1
  0
XRECORD
  5
299
102
{ACAD_REACTORS
330
298
102
}
330
298
100
AcDbXrecord
280
     1
102
RTVSPost2010Prop28
280
     0
102
RTVSPost2010PropOp28
 70
     1
102
RTVSPost2010Prop29
280
     1
102
RTVSPost2010PropOp29
 70
     1
102
RTVSPost2010Prop30
280
     1
102
RTVSPost2010PropOp30
 70
     1
102
RTVSPost2010Prop31
280
     0
102
RTVSPost2010PropOp31
 70
     1
102
RTVSPost2010Prop32
280
     0
102
RTVSPost2010PropOp32
 70
     1
102
RTVSPost2010Prop33
280
     0
102
RTVSPost2010PropOp33
 70
     1
102
RTVSPost2010Prop34
280
     0
102
RTVSPost2010PropOp34
 70
     1
102
RTVSPost2010Prop35
280
     0
102
RTVSPost2010PropOp35
 70
     1
102
RTVSPost2010Prop36
280
     0
102
RTVSPost2010PropOp36
 70
     1
102
RTVSPost2010Prop37
 90
       50
102
RTVSPost2010PropOp37
 70
     1
102
RTVSPost2010Prop38
140
0.0
102
RTVSPost2010PropOp38
 70
     1
102
RTVSPost2010Prop39
140
1.0
102
RTVSPost2010PropOp39
 70
     1
102
RTVSPost2010Prop40
 90
        0
102
RTVSPost2010PropOp40
 70
     1
102
RTVSPost2010Prop41ColorIndex
 90
       18
102
RTVSPost2010Prop41ColorRGB
 90
        0
102
RTVSPost2010PropOp41
 70
     1
102
RTVSPost2010Prop42
 90
       50
102
RTVSPost2010PropOp42
 70
     1
102
RTVSPost2010Prop43
 90
        3
102
RTVSPost2010PropOp43
 70
     1
102
RTVSPost2010Prop44ColorIndex
 90
        5
102
RTVSPost2010Prop44ColorRGB
 90
      255
102
RTVSPost2010PropOp44
 70
     1
102
RTVSPost2010Prop45
280
     0
102
RTVSPost2010PropOp45
 70
     1
102
RTVSPost2010Prop46
 90
       50
102
RTVSPost2010PropOp46
 70
     1
102
RTVSPost2010Prop47
 90
       50
102
RTVSPost2010PropOp47
 70
     1
102
RTVSPost2010Prop48
 90
       50
102
RTVSPost2010PropOp48
 70
     1
102
RTVSPost2010Prop49
280
     0
102
RTVSPost2010PropOp49
 70
     1
102
RTVSPost2010Prop50
 90
       50
102
RTVSPost2010PropOp50
 70
     1
102
RTVSPost2010Prop51ColorIndex
 90
      256
102
RTVSPost2010Prop51ColorRGB
 90
-16777216
102
RTVSPost2010PropOp51
 70
     0
102
RTVSPost2010Prop52
140
1.0
102
RTVSPost2010PropOp52
 70
     0
102
RTVSPost2010Prop53
 90
        2
102
RTVSPost2010PropOp53
 70
     1
102
RTVSPost2010Prop54
  1
strokes_ogs.tif
102
RTVSPost2010PropOp54
 70
     1
102
RTVSPost2010Prop55
280
     0
102
RTVSPost2010PropOp55
 70
     1
102
RTVSPost2010Prop56
140
1.0
102
RTVSPost2010PropOp56
 70
     1
102
RTVSPost2010Prop57
140
1.0
102
RTVSPost2010PropOp57
 70
     1
102
RTVSPropertyOp0
 70
     1
102
RTVSPropertyOp1
 70
     1
102
RTVSPropertyOp2
 70
     1
102
RTVSPropertyOp3
 70
     1
102
RTVSPropertyOp4
 70
     1
102
RTVSPropertyOp5
 70
     1
102
RTVSPropertyOp6
 70
     1
102
RTVSPropertyOp7
 70
     1
102
RTVSPropertyOp8
 70
     1
102
RTVSPropertyOp9
 70
     1
102
RTVSPropertyOp10
 70
     1
102
RTVSPropertyOp11
 70
     1
102
RTVSPropertyOp12
 70
     1
102
RTVSPropertyOp13
 70
     1
102
RTVSPropertyOp14
 70
     1
102
RTVSPropertyOp15
 70
     1
102
RTVSPropertyOp16
 70
     1
102
RTVSPropertyOp17
 70
     1
102
RTVSPropertyOp18
 70
     1
102
RTVSPropertyOp19
 70
     1
102
RTVSPropertyOp20
 70
     1
102
RTVSPropertyOp21
 70
     1
102
RTVSPropertyOp22
 70
     1
102
RTVSPropertyOp23
 70
     1
102
RTVSPropertyOp24
 70
     1
102
RTVSPropertyOp25
 70
     1
102
RTVSPropertyOp26
 70
     1
102
RTVSPropertyOp27
 70
     1
102
RTVSPropertyOp28
 70
     1
102
RTVSPropertyOp29
 70
     1
102
RTVSPropertyOp30
 70
     1
102
RTVSPropertyOp31
 70
     1
102
RTVSPropertyOp32
 70
     1
102
RTVSPropertyOp33
 70
     1
102
RTVSPropertyOp34
 70
     1
102
RTVSPropertyOp35
 70
     1
102
RTVSPropertyOp36
 70
     1
102
RTVSPropertyOp37
 70
     1
102
RTVSPropertyOp38
 70
     1
102
RTVSPropertyOp39
 70
     1
102
RTVSPropertyOp40
 70
     1
102
RTVSPropertyOp41
 70
     1
102
RTVSPropertyOp42
 70
     1
102
RTVSPropertyOp43
 70
     1
102
RTVSPropertyOp44
 70
     1
102
RTVSPropertyOp45
 70
     1
102
RTVSPropertyOp46
 70
     1
102
RTVSPropertyOp47
 70
     1
102
RTVSPropertyOp48
 70
     1
102
RTVSPropertyOp49
 70
     1
102
RTVSPropertyOp50
 70
     1
102
RTVSPropertyOp51
 70
     0
102
RTVSPropertyOp52
 70
     0
102
RTVSPropertyOp53
 70
     1
102
RTVSPropertyOp54
 70
     1
102
RTVSPropertyOp55
 70
     1
102
RTVSPropertyOp56
 70
     1
102
RTVSPropertyOp57
 70
     1
102
RTVSPropertyOp58
 70
     1
102
RTVSPropertyOp59
 70
     1
102
RTVSPropertyOp60
 70
     1
102
RTVSPropertyOp61
 70
     1
102
RTVSPropertyOp62
 70
     1
  0
ENDSEC
  0
EOF
