  0
SECTION
  2
HEADER
  9
$ACADVER
  1
AC1021
  9
$ACADMAINTVER
 70
    50
  9
$DWGCODEPAGE
  3
ANSI_1252
  9
$INSBASE
 10
0.0
 20
0.0
 30
0.0
  9
$EXTMIN
 10
2532.03971951889
 20
1598.040672224314
 30
0.0
  9
$EXTMAX
 10
5020.800425918046
 20
3096.698987053626
 30
0.0
  9
$LIMMIN
 10
0.0
 20
0.0
  9
$LIMMAX
 10
12.0
 20
9.0
  9
$ORTHOMODE
 70
     0
  9
$REGENMODE
 70
     1
  9
$FILLMODE
 70
     1
  9
$QTEXTMODE
 70
     0
  9
$MIRRTEXT
 70
     0
  9
$LTSCALE
 40
1.0
  9
$ATTMODE
 70
     1
  9
$TEXTSIZE
 40
0.2
  9
$TRACEWID
 40
0.05
  9
$TEXTSTYLE
  7
Standard
  9
$CLAYER
  8
0
  9
$CELTYPE
  6
ByLayer
  9
$CECOLOR
 62
   256
  9
$CELTSCALE
 40
1.0
  9
$DISPSILH
 70
     0
  9
$DIMSCALE
 40
1.0
  9
$DIMASZ
 40
0.18
  9
$DIMEXO
 40
0.0625
  9
$DIMDLI
 40
0.38
  9
$DIMRND
 40
0.0
  9
$DIMDLE
 40
0.0
  9
$DIMEXE
 40
0.18
  9
$DIMTP
 40
0.0
  9
$DIMTM
 40
0.0
  9
$DIMTXT
 40
0.18
  9
$DIMCEN
 40
0.09
  9
$DIMTSZ
 40
0.0
  9
$DIMTOL
 70
     0
  9
$DIMLIM
 70
     0
  9
$DIMTIH
 70
     1
  9
$DIMTOH
 70
     1
  9
$DIMSE1
 70
     0
  9
$DIMSE2
 70
     0
  9
$DIMTAD
 70
     0
  9
$DIMZIN
 70
     0
  9
$DIMBLK
  1

  9
$DIMASO
 70
     1
  9
$DIMSHO
 70
     1
  9
$DIMPOST
  1

  9
$DIMAPOST
  1

  9
$DIMALT
 70
     0
  9
$DIMALTD
 70
     2
  9
$DIMALTF
 40
25.4
  9
$DIMLFAC
 40
1.0
  9
$DIMTOFL
 70
     0
  9
$DIMTVP
 40
0.0
  9
$DIMTIX
 70
     0
  9
$DIMSOXD
 70
     0
  9
$DIMSAH
 70
     0
  9
$DIMBLK1
  1

  9
$DIMBLK2
  1

  9
$DIMSTYLE
  2
Standard
  9
$DIMCLRD
 70
     0
  9
$DIMCLRE
 70
     0
  9
$DIMCLRT
 70
     0
  9
$DIMTFAC
 40
1.0
  9
$DIMGAP
 40
0.09
  9
$DIMJUST
 70
     0
  9
$DIMSD1
 70
     0
  9
$DIMSD2
 70
     0
  9
$DIMTOLJ
 70
     1
  9
$DIMTZIN
 70
     0
  9
$DIMALTZ
 70
     0
  9
$DIMALTTZ
 70
     0
  9
$DIMUPT
 70
     0
  9
$DIMDEC
 70
     4
  9
$DIMTDEC
 70
     4
  9
$DIMALTU
 70
     2
  9
$DIMALTTD
 70
     2
  9
$DIMTXSTY
  7
Standard
  9
$DIMAUNIT
 70
     1
  9
$DIMADEC
 70
     0
  9
$DIMALTRND
 40
0.0
  9
$DIMAZIN
 70
     0
  9
$DIMDSEP
 70
    46
  9
$DIMATFIT
 70
     3
  9
$DIMFRAC
 70
     0
  9
$DIMLDRBLK
  1

  9
$DIMLUNIT
 70
     2
  9
$DIMLWD
 70
    -2
  9
$DIMLWE
 70
    -2
  9
$DIMTMOVE
 70
     0
  9
$DIMFXL
 40
1.0
  9
$DIMFXLON
 70
     0
  9
$DIMJOGANG
 40
0.7853981633974483
  9
$DIMTFILL
 70
     0
  9
$DIMTFILLCLR
 70
     0
  9
$DIMARCSYM
 70
     0
  9
$DIMLTYPE
  6

  9
$DIMLTEX1
  6

  9
$DIMLTEX2
  6

  9
$LUNITS
 70
     2
  9
$LUPREC
 70
     4
  9
$SKETCHINC
 40
0.1
  9
$FILLETRAD
 40
0.0
  9
$AUNITS
 70
     0
  9
$AUPREC
 70
     0
  9
$MENU
  1
.
  9
$ELEVATION
 40
0.0
  9
$PELEVATION
 40
0.0
  9
$THICKNESS
 40
0.0
  9
$LIMCHECK
 70
     0
  9
$CHAMFERA
 40
0.0
  9
$CHAMFERB
 40
0.0
  9
$CHAMFERC
 40
0.0
  9
$CHAMFERD
 40
0.0
  9
$SKPOLY
 70
     0
  9
$TDCREATE
 40
2459816.764247685
  9
$TDUCREATE
 40
2459816.264247685
  9
$TDUPDATE
 40
2459816.764247685
  9
$TDUUPDATE
 40
2459816.264247685
  9
$TDINDWG
 40
0.0000231481
  9
$TDUSRTIMER
 40
0.0000231481
  9
$USRTIMER
 70
     1
  9
$ANGBASE
 50
0.0
  9
$ANGDIR
 70
     0
  9
$PDMODE
 70
     0
  9
$PDSIZE
 40
0.0
  9
$PLINEWID
 40
0.0
  9
$SPLFRAME
 70
     0
  9
$SPLINETYPE
 70
     6
  9
$SPLINESEGS
 70
     8
  9
$HANDSEED
  5
2F2
  9
$SURFTAB1
 70
     6
  9
$SURFTAB2
 70
     6
  9
$SURFTYPE
 70
     6
  9
$SURFU
 70
     6
  9
$SURFV
 70
     6
  9
$UCSBASE
  2

  9
$UCSNAME
  2

  9
$UCSORG
 10
0.0
 20
0.0
 30
0.0
  9
$UCSXDIR
 10
1.0
 20
0.0
 30
0.0
  9
$UCSYDIR
 10
0.0
 20
1.0
 30
0.0
  9
$UCSORTHOREF
  2

  9
$UCSORTHOVIEW
 70
     0
  9
$UCSORGTOP
 10
0.0
 20
0.0
 30
0.0
  9
$UCSORGBOTTOM
 10
0.0
 20
0.0
 30
0.0
  9
$UCSORGLEFT
 10
0.0
 20
0.0
 30
0.0
  9
$UCSORGRIGHT
 10
0.0
 20
0.0
 30
0.0
  9
$UCSORGFRONT
 10
0.0
 20
0.0
 30
0.0
  9
$UCSORGBACK
 10
0.0
 20
0.0
 30
0.0
  9
$PUCSBASE
  2

  9
$PUCSNAME
  2

  9
$PUCSORG
 10
0.0
 20
0.0
 30
0.0
  9
$PUCSXDIR
 10
1.0
 20
0.0
 30
0.0
  9
$PUCSYDIR
 10
0.0
 20
1.0
 30
0.0
  9
$PUCSORTHOREF
  2

  9
$PUCSORTHOVIEW
 70
     0
  9
$PUCSORGTOP
 10
0.0
 20
0.0
 30
0.0
  9
$PUCSORGBOTTOM
 10
0.0
 20
0.0
 30
0.0
  9
$PUCSORGLEFT
 10
0.0
 20
0.0
 30
0.0
  9
$PUCSORGRIGHT
 10
0.0
 20
0.0
 30
0.0
  9
$PUCSORGFRONT
 10
0.0
 20
0.0
 30
0.0
  9
$PUCSORGBACK
 10
0.0
 20
0.0
 30
0.0
  9
$USERI1
 70
     0
  9
$USERI2
 70
     0
  9
$USERI3
 70
     0
  9
$USERI4
 70
     0
  9
$USERI5
 70
     0
  9
$USERR1
 40
0.0
  9
$USERR2
 40
0.0
  9
$USERR3
 40
0.0
  9
$USERR4
 40
0.0
  9
$USERR5
 40
0.0
  9
$WORLDVIEW
 70
     1
  9
$SHADEDGE
 70
     3
  9
$SHADEDIF
 70
    70
  9
$TILEMODE
 70
     0
  9
$MAXACTVP
 70
    64
  9
$PINSBASE
 10
0.0
 20
0.0
 30
0.0
  9
$PLIMCHECK
 70
     0
  9
$PEXTMIN
 10
-3.179323264254881
 20
-3.79528158292931
 30
0.0
  9
$PEXTMAX
 10
293.8206767356985
 20
202.4547184170706
 30
0.0
  9
$PLIMMIN
 10
0.0
 20
0.0
  9
$PLIMMAX
 10
12.0
 20
9.0
  9
$UNITMODE
 70
     0
  9
$VISRETAIN
 70
     1
  9
$PLINEGEN
 70
     0
  9
$PSLTSCALE
 70
     1
  9
$TREEDEPTH
 70
  3020
  9
$CMLSTYLE
  2
Standard
  9
$CMLJUST
 70
     0
  9
$CMLSCALE
 40
1.0
  9
$PROXYGRAPHICS
 70
     1
  9
$MEASUREMENT
 70
     1
  9
$CELWEIGHT
370
    -1
  9
$ENDCAPS
280
     0
  9
$JOINSTYLE
280
     0
  9
$LWDISPLAY
290
     0
  9
$INSUNITS
 70
     4
  9
$HYPERLINKBASE
  1

  9
$STYLESHEET
  1

  9
$XEDIT
290
     1
  9
$CEPSNTYPE
380
     0
  9
$PSTYLEMODE
290
     1
  9
$FINGERPRINTGUID
  2
{46993819-795D-4647-82FB-C5D357A5EFBC}
  9
$VERSIONGUID
  2
{FCF9A058-BF27-1547-A208-70D3847681CD}
  9
$EXTNAMES
290
     1
  9
$PSVPSCALE
 40
0.0
  9
$OLESTARTUP
290
     0
  9
$SORTENTS
280
   127
  9
$INDEXCTL
280
     0
  9
$HIDETEXT
280
     1
  9
$XCLIPFRAME
290
     0
  9
$HALOGAP
280
     0
  9
$OBSCOLOR
 70
   257
  9
$OBSLTYPE
280
     0
  9
$INTERSECTIONDISPLAY
280
     0
  9
$INTERSECTIONCOLOR
 70
   257
  9
$DIMASSOC
280
     2
  9
$PROJECTNAME
  1

  9
$CAMERADISPLAY
290
     0
  9
$LENSLENGTH
 40
50.0
  9
$CAMERAHEIGHT
 40
0.0
  9
$STEPSPERSEC
 40
2.0
  9
$STEPSIZE
 40
6.0
  9
$3DDWFPREC
 40
2.0
  9
$PSOLWIDTH
 40
0.25
  9
$PSOLHEIGHT
 40
4.0
  9
$LOFTANG1
 40
1.570796326794896
  9
$LOFTANG2
 40
1.570796326794896
  9
$LOFTMAG1
 40
0.0
  9
$LOFTMAG2
 40
0.0
  9
$LOFTPARAM
 70
     7
  9
$LOFTNORMALS
280
     1
  9
$LATITUDE
 40
0.0
  9
$LONGITUDE
 40
0.0
  9
$NORTHDIRECTION
 40
0.0
  9
$TIMEZONE
 70
     0
  9
$LIGHTGLYPHDISPLAY
280
     1
  9
$TILEMODELIGHTSYNCH
280
     1
  9
$CMATERIAL
347
11
  9
$SOLIDHIST
280
     0
  9
$SHOWHIST
280
     1
  9
$DWFFRAME
280
     2
  9
$DGNFRAME
280
     0
  9
$REALWORLDSCALE
290
     1
  9
$INTERFERECOLOR
 62
     1
  9
$INTERFEREOBJVS
345
33
  9
$INTERFEREVPVS
346
30
  9
$CSHADOW
280
     0
  9
$SHADOWPLANELOCATION
 40
0.0
  0
ENDSEC
  0
SECTION
  2
CLASSES
  0
CLASS
  1
ACDBDICTIONARYWDFLT
  2
AcDbDictionaryWithDefault
  3
ObjectDBX Classes
 90
        0
 91
        1
280
     0
281
     0
  0
CLASS
  1
MATERIAL
  2
AcDbMaterial
  3
ObjectDBX Classes
 90
     1153
 91
        3
280
     0
281
     0
  0
CLASS
  1
VISUALSTYLE
  2
AcDbVisualStyle
  3
ObjectDBX Classes
 90
     4095
 91
       24
280
     0
281
     0
  0
CLASS
  1
SCALE
  2
AcDbScale
  3
ObjectDBX Classes
 90
     1153
 91
       17
280
     0
281
     0
  0
CLASS
  1
TABLESTYLE
  2
AcDbTableStyle
  3
ObjectDBX Classes
 90
     4095
 91
        1
280
     0
281
     0
  0
CLASS
  1
MLEADERSTYLE
  2
AcDbMLeaderStyle
  3
ACDB_MLEADERSTYLE_CLASS
 90
     4095
 91
        1
280
     0
281
     0
  0
CLASS
  1
ACDBSECTIONVIEWSTYLE
  2
AcDbSectionViewStyle
  3
ObjectDBX Classes
 90
     1025
 91
        1
280
     0
281
     0
  0
CLASS
  1
ACDBDETAILVIEWSTYLE
  2
AcDbDetailViewStyle
  3
ObjectDBX Classes
 90
     1025
 91
        1
280
     0
281
     0
  0
CLASS
  1
RASTERVARIABLES
  2
AcDbRasterVariables
  3
ISM
 90
        0
 91
        1
280
     0
281
     0
  0
CLASS
  1
DICTIONARYVAR
  2
AcDbDictionaryVar
  3
ObjectDBX Classes
 90
        0
 91
        6
280
     0
281
     0
  0
CLASS
  1
CELLSTYLEMAP
  2
AcDbCellStyleMap
  3
ObjectDBX Classes
 90
     1152
 91
        2
280
     0
281
     0
  0
CLASS
  1
SORTENTSTABLE
  2
AcDbSortentsTable
  3
ObjectDBX Classes
 90
        0
 91
        1
280
     0
281
     0
  0
CLASS
  1
SUN
  2
AcDbSun
  3
SCENEOE
 90
     1153
 91
        1
280
     0
281
     0
  0
ENDSEC
  0
SECTION
  2
TABLES
  0
TABLE
  2
VPORT
  5
8
330
0
100
AcDbSymbolTable
 70
     1
  0
VPORT
  5
57
330
8
100
AcDbSymbolTableRecord
100
AcDbViewportTableRecord
  2
*Active
 70
     0
 10
0.0
 20
0.0
 11
1.0
 21
1.0
 12
3776.420072718468
 22
2347.36982963897
 13
0.0
 23
0.0
 14
1.0
 24
1.0
 15
0.0
 25
0.0
 16
0.0
 26
0.0
 36
1.0
 17
0.0
 27
0.0
 37
0.0
 40
1498.658314829311
 41
1.660659192140544
 42
50.0
 43
0.0
 44
0.0
 50
0.0
 51
0.0
 71
     0
 72
  1000
 73
     1
 74
     1
 75
     0
 76
     0
 77
     0
 78
     0
281
     0
 65
     1
110
0.0
120
0.0
130
0.0
111
1.0
121
0.0
131
0.0
112
0.0
122
1.0
132
0.0
 79
     0
146
0.0
 60
     3
 61
     5
292
     1
282
     1
141
0.0
142
0.0
 63
   250
421
  3355443
361
2B4
  0
ENDTAB
  0
TABLE
  2
LTYPE
  5
5
330
0
100
AcDbSymbolTable
 70
     2
  0
LTYPE
  5
5B
330
5
100
AcDbSymbolTableRecord
100
AcDbLinetypeTableRecord
  2
ByBlock
 70
     0
  3

 72
    65
 73
     0
 40
0.0
  0
LTYPE
  5
5C
330
5
100
AcDbSymbolTableRecord
100
AcDbLinetypeTableRecord
  2
ByLayer
 70
     0
  3

 72
    65
 73
     0
 40
0.0
  0
LTYPE
  5
5D
330
5
100
AcDbSymbolTableRecord
100
AcDbLinetypeTableRecord
  2
Continuous
 70
     0
  3
Solid line
 72
    65
 73
     0
 40
0.0
  0
LTYPE
  5
14B
330
5
100
AcDbSymbolTableRecord
100
AcDbLinetypeTableRecord
  2
Dash
 70
     0
  3

 72
    65
 73
     2
 40
3.4
 49
2.2
 74
     0
 49
-1.2
 74
     0
  0
ENDTAB
  0
TABLE
  2
LAYER
  5
2
330
0
100
AcDbSymbolTable
 70
     3
  0
LAYER
  5
54
330
2
100
AcDbSymbolTableRecord
100
AcDbLayerTableRecord
  2
0
 70
     0
 62
     7
  6
Continuous
370
    -3
390
F
347
21
  0
LAYER
  5
BC
330
2
100
AcDbSymbolTableRecord
100
AcDbLayerTableRecord
  2
_ARDEX - WELDTEC TANKING_
 70
     0
 62
     7
  6
Continuous
370
     9
390
F
347
21
  0
LAYER
  5
EE
330
2
100
AcDbSymbolTableRecord
100
AcDbLayerTableRecord
  2
_ARDEX - BUTYNOL_
 70
     0
 62
     7
  6
Continuous
370
     9
390
F
347
21
  0
ENDTAB
  0
TABLE
  2
STYLE
  5
3
330
0
100
AcDbSymbolTable
 70
    11
  0
STYLE
  5
55
330
3
100
AcDbSymbolTableRecord
100
AcDbTextStyleTableRecord
  2
Standard
 70
     0
 40
0.0
 41
1.0
 50
0.0
 71
     0
 42
0.2
  3
txt
  4

  0
STYLE
  5
5A
330
3
100
AcDbSymbolTableRecord
100
AcDbTextStyleTableRecord
  2
Annotative
 70
     0
 40
0.0
 41
1.0
 50
0.0
 71
     0
 42
0.2
  3
txt
  4

1001
AcadAnnotative
1000
AnnotativeData
1002
{
1070
     1
1070
     1
1002
}
  0
STYLE
  5
1C7
330
3
100
AcDbSymbolTableRecord
100
AcDbTextStyleTableRecord
  2
Swis721 Lt BT
 70
     0
 40
19.99999999999999
 41
1.0
 50
0.0
 71
     0
 42
0.2
  3
swissl.ttf
  4

1001
ACAD
1000
Swis721 Lt BT
1071
       34
  0
STYLE
  5
28B
330
3
100
AcDbSymbolTableRecord
100
AcDbTextStyleTableRecord
  2
Swis721 Lt BT_1
 70
     0
 40
1.5
 41
0.9
 50
0.0
 71
     0
 42
0.2
  3
swissl.ttf
  4

1001
ACAD
1000
Swis721 Lt BT
1071
       34
  0
STYLE
  5
28E
330
3
100
AcDbSymbolTableRecord
100
AcDbTextStyleTableRecord
  2
Swis721 Lt BT_2
 70
     0
 40
2.1
 41
0.9
 50
0.0
 71
     0
 42
0.2
  3
swissl.ttf
  4

1001
ACAD
1000
Swis721 Lt BT
1071
       34
  0
STYLE
  5
291
330
3
100
AcDbSymbolTableRecord
100
AcDbTextStyleTableRecord
  2
Swis721 Lt BT_B
 70
     0
 40
0.7000000000000001
 41
0.9
 50
0.0
 71
     0
 42
0.2
  3

  4

1001
ACAD
1000
Swis721 Lt BT
1071
 33554466
  0
STYLE
  5
293
330
3
100
AcDbSymbolTableRecord
100
AcDbTextStyleTableRecord
  2
Swis721 Lt BT_3
 70
     0
 40
0.7000000000000001
 41
0.9
 50
0.0
 71
     0
 42
0.2
  3
swissl.ttf
  4

1001
ACAD
1000
Swis721 Lt BT
1071
       34
  0
STYLE
  5
29E
330
3
100
AcDbSymbolTableRecord
100
AcDbTextStyleTableRecord
  2
Arial Black
 70
     0
 40
5.0
 41
0.9
 50
0.0
 71
     0
 42
0.2
  3

  4

1001
ACAD
1000
Arial Black
1071
       34
  0
STYLE
  5
2A4
330
3
100
AcDbSymbolTableRecord
100
AcDbTextStyleTableRecord
  2
Swis721 Lt BT_4
 70
     0
 40
2.0
 41
1.0
 50
0.0
 71
     0
 42
0.2
  3
swissl.ttf
  4

1001
ACAD
1000
Swis721 Lt BT
1071
       34
  0
STYLE
  5
2A6
330
3
100
AcDbSymbolTableRecord
100
AcDbTextStyleTableRecord
  2
Swis721 Lt BT_5
 70
     0
 40
3.0
 41
1.0
 50
0.0
 71
     0
 42
0.2
  3
swissl.ttf
  4

1001
ACAD
1000
Swis721 Lt BT
1071
       34
  0
STYLE
  5
2A8
330
3
100
AcDbSymbolTableRecord
100
AcDbTextStyleTableRecord
  2
Arial
 70
     0
 40
5.0
 41
1.0
 50
0.0
 71
     0
 42
0.2
  3
arial.ttf
  4

1001
ACAD
1000
Arial
1071
       34
  0
ENDTAB
  0
TABLE
  2
VIEW
  5
6
330
0
100
AcDbSymbolTable
 70
     0
  0
ENDTAB
  0
TABLE
  2
UCS
  5
7
330
0
100
AcDbSymbolTable
 70
     0
  0
ENDTAB
  0
TABLE
  2
APPID
  5
9
330
0
100
AcDbSymbolTable
 70
     4
  0
APPID
  5
56
330
9
100
AcDbSymbolTableRecord
100
AcDbRegAppTableRecord
  2
ACAD
 70
     0
  0
APPID
  5
5E
330
9
100
AcDbSymbolTableRecord
100
AcDbRegAppTableRecord
  2
AcadAnnotative
 70
     0
  0
APPID
  5
78
330
9
100
AcDbSymbolTableRecord
100
AcDbRegAppTableRecord
  2
REVIT
 70
     0
  0
APPID
  5
2EB
330
9
100
AcDbSymbolTableRecord
100
AcDbRegAppTableRecord
  2
ACAD_MLEADERVER
 70
     0
  0
ENDTAB
  0
TABLE
  2
DIMSTYLE
  5
A
330
0
100
AcDbSymbolTable
 70
     2
100
AcDbDimStyleTable
 71
     0
  0
DIMSTYLE
105
58
330
A
100
AcDbSymbolTableRecord
100
AcDbDimStyleTableRecord
  2
Standard
 70
     0
340
55
  0
DIMSTYLE
105
59
330
A
100
AcDbSymbolTableRecord
100
AcDbDimStyleTableRecord
  2
Annotative
 70
     0
340
55
1001
AcadAnnotative
1000
AnnotativeData
1002
{
1070
     1
1070
     1
1002
}
  0
ENDTAB
  0
TABLE
  2
BLOCK_RECORD
  5
1
330
0
100
AcDbSymbolTable
 70
    24
  0
BLOCK_RECORD
  5
70
102
{ACAD_XDICTIONARY
360
2B1
102
}
330
1
100
AcDbSymbolTableRecord
100
AcDbBlockTableRecord
  2
*Model_Space
340
73
 70
     0
280
     1
281
     0
  0
BLOCK_RECORD
  5
6C
330
1
100
AcDbSymbolTableRecord
100
AcDbBlockTableRecord
  2
*Paper_Space
340
6F
 70
     0
280
     1
281
     0
  0
BLOCK_RECORD
  5
74
330
1
100
AcDbSymbolTableRecord
100
AcDbBlockTableRecord
  2
*Paper_Space0
340
77
 70
     0
280
     1
281
     0
  0
BLOCK_RECORD
  5
ED
330
1
100
AcDbSymbolTableRecord
100
AcDbBlockTableRecord
  2
_ARDEX_ Lining - Various - Concrete Wall 200-729082-_X_ - AS-10 FOOTING JUNCTION NO STEP
340
0
102
{BLKREFS
331
101
102
}
 70
     0
280
     1
281
     0
  0
BLOCK_RECORD
  5
102
330
1
100
AcDbSymbolTableRecord
100
AcDbBlockTableRecord
  2
_ARDEX_ Waterstop - _ARDEX_ Water Stop-708192-_X_ - AS-10 FOOTING JUNCTION NO STEP
340
0
102
{BLKREFS
331
10D
102
}
 70
     0
280
     1
281
     0
  0
BLOCK_RECORD
  5
10E
330
1
100
AcDbSymbolTableRecord
100
AcDbBlockTableRecord
  2
_ARDEX_ Lining - Various - Protection Board-777913-_X_ - AS-10 FOOTING JUNCTION NO STEP
340
0
102
{BLKREFS
331
119
102
}
 70
     0
280
     1
281
     0
  0
BLOCK_RECORD
  5
11A
330
1
100
AcDbSymbolTableRecord
100
AcDbBlockTableRecord
  2
_ARDEX_ Drain 100mm - _ARDEX_ Drain 100mm-718934-_X_ - AS-10 FOOTING JUNCTION NO STEP
340
0
102
{BLKREFS
331
121
102
}
 70
     0
280
     1
281
     0
  0
BLOCK_RECORD
  5
122
330
1
100
AcDbSymbolTableRecord
100
AcDbBlockTableRecord
  2
_ARDEX_ Concrete Base No Step without Chamfer - _ARDEX_ Concrete Base No Step without Chamfer-777883-_X_ - AS-10 FOOTING JUNCTION NO STEP
340
0
102
{BLKREFS
331
13A
102
}
 70
     0
280
     1
281
     0
  0
BLOCK_RECORD
  5
13B
330
1
100
AcDbSymbolTableRecord
100
AcDbBlockTableRecord
  2
_ARDEX_ Lines - WPM240 Primer-729093-_X_ - AS-10 FOOTING JUNCTION NO STEP
340
0
102
{BLKREFS
331
13F
102
}
 70
     0
280
     1
281
     0
  0
BLOCK_RECORD
  5
140
330
1
100
AcDbSymbolTableRecord
100
AcDbBlockTableRecord
  2
_ARDEX_ Lines - WPM240 Primer-775742-_X_ - AS-10 FOOTING JUNCTION NO STEP
340
0
102
{BLKREFS
331
144
102
}
 70
     0
280
     1
281
     0
  0
BLOCK_RECORD
  5
145
330
1
100
AcDbSymbolTableRecord
100
AcDbBlockTableRecord
  2
_ARDEX_ Lines - WPM240 Primer-775743-_X_ - AS-10 FOOTING JUNCTION NO STEP
340
0
102
{BLKREFS
331
149
102
}
 70
     0
280
     1
281
     0
  0
BLOCK_RECORD
  5
14A
330
1
100
AcDbSymbolTableRecord
100
AcDbBlockTableRecord
  2
_ARDEX_ Lines - DPC-772350-_X_ - AS-10 FOOTING JUNCTION NO STEP
340
0
102
{BLKREFS
331
14F
102
}
 70
     0
280
     1
281
     0
  0
BLOCK_RECORD
  5
150
330
1
100
AcDbSymbolTableRecord
100
AcDbBlockTableRecord
  2
_ARDEX_ Lines - DPC-772715-_X_ - AS-10 FOOTING JUNCTION NO STEP
340
0
102
{BLKREFS
331
154
102
}
 70
     0
280
     1
281
     0
  0
BLOCK_RECORD
  5
155
330
1
100
AcDbSymbolTableRecord
100
AcDbBlockTableRecord
  2
_ARDEX_ Lines - DPC-772351-_X_ - AS-10 FOOTING JUNCTION NO STEP
340
0
102
{BLKREFS
331
159
102
}
 70
     0
280
     1
281
     0
  0
BLOCK_RECORD
  5
15A
330
1
100
AcDbSymbolTableRecord
100
AcDbBlockTableRecord
  2
_ARDEX_ Lines - WPM 3000X DPM Membrane-777066-_X_ - AS-10 FOOTING JUNCTION NO STEP
340
0
102
{BLKREFS
331
15E
102
}
 70
     0
280
     1
281
     0
  0
BLOCK_RECORD
  5
186
330
1
100
AcDbSymbolTableRecord
100
AcDbBlockTableRecord
  2
_ARDEX_ Lining - Various - Protection Board-732926-_X_ - AS-10 FOOTING JUNCTION NO STEP
340
0
102
{BLKREFS
331
190
102
}
 70
     0
280
     1
281
     0
  0
BLOCK_RECORD
  5
191
330
1
100
AcDbSymbolTableRecord
100
AcDbBlockTableRecord
  2
_ARDEX_ Lining - Various - Protection Board-732857-_X_ - AS-10 FOOTING JUNCTION NO STEP
340
0
102
{BLKREFS
331
19B
102
}
 70
     0
280
     1
281
     0
  0
BLOCK_RECORD
  5
19D
330
1
100
AcDbSymbolTableRecord
100
AcDbBlockTableRecord
  2
_ARDEX_ Lines - DPC-775548-_X_ - AS-10 FOOTING JUNCTION NO STEP
340
0
102
{BLKREFS
331
1A1
102
}
 70
     0
280
     1
281
     0
  0
BLOCK_RECORD
  5
1A2
330
1
100
AcDbSymbolTableRecord
100
AcDbBlockTableRecord
  2
_ARDEX_ Lines - DPC-775549-_X_ - AS-10 FOOTING JUNCTION NO STEP
340
0
102
{BLKREFS
331
1A6
102
}
 70
     0
280
     1
281
     0
  0
BLOCK_RECORD
  5
1AA
330
1
100
AcDbSymbolTableRecord
100
AcDbBlockTableRecord
  2
_ARDEX_ Lines - DPC-775570-_X_ - AS-10 FOOTING JUNCTION NO STEP
340
0
102
{BLKREFS
331
1AE
102
}
 70
     0
280
     1
281
     0
  0
BLOCK_RECORD
  5
1AF
330
1
100
AcDbSymbolTableRecord
100
AcDbBlockTableRecord
  2
_ARDEX_ Lines - DPC-775632-_X_ - AS-10 FOOTING JUNCTION NO STEP
340
0
102
{BLKREFS
331
1B3
102
}
 70
     0
280
     1
281
     0
  0
BLOCK_RECORD
  5
1B4
330
1
100
AcDbSymbolTableRecord
100
AcDbBlockTableRecord
  2
_ARDEX_ Lines - WPM 3000X DPM Membrane-777067-_X_ - AS-10 FOOTING JUNCTION NO STEP
340
0
102
{BLKREFS
331
1B8
102
}
 70
     0
280
     1
281
     0
  0
BLOCK_RECORD
  5
1B9
330
1
100
AcDbSymbolTableRecord
100
AcDbBlockTableRecord
  2
_ARDEX_ Lines - WPM 3000X DPM Membrane-777068-_X_ - AS-10 FOOTING JUNCTION NO STEP
340
0
102
{BLKREFS
331
1BD
102
}
 70
     0
280
     1
281
     0
  0
BLOCK_RECORD
  5
1BE
330
1
100
AcDbSymbolTableRecord
100
AcDbBlockTableRecord
  2
_ARDEX_ Lines - WPM 3000X DPM Membrane-776765-_X_ - AS-10 FOOTING JUNCTION NO STEP
340
0
102
{BLKREFS
331
1C2
102
}
 70
     0
280
     1
281
     0
  0
BLOCK_RECORD
  5
213
330
1
100
AcDbSymbolTableRecord
100
AcDbBlockTableRecord
  2
_ARDEX_ Landscape Title block Weldtec Tanking - ARDEX Logo_dwg-792302-FOOTING JUNCTION NO STEP 1
340
0
102
{BLKREFS
331
2A0
102
}
 70
     0
280
     1
281
     0
  0
BLOCK_RECORD
  5
276
330
1
100
AcDbSymbolTableRecord
100
AcDbBlockTableRecord
  2
_ARDEX_ Landscape Title block Weldtec Tanking - WPM 3000X-677308-FOOTING JUNCTION NO STEP 1
340
0
102
{BLKREFS
331
2A3
102
}
 70
     0
280
     1
281
     0
  0
ENDTAB
  0
ENDSEC
  0
SECTION
  2
BLOCKS
  0
BLOCK
  5
71
330
70
100
AcDbEntity
  8
0
100
AcDbBlockBegin
  2
*Model_Space
 70
     0
 10
0.0
 20
0.0
 30
0.0
  3
*Model_Space
  1

  0
ENDBLK
  5
72
330
70
100
AcDbEntity
  8
0
100
AcDbBlockEnd
  0
BLOCK
  5
6D
330
6C
100
AcDbEntity
 67
     1
  8
0
100
AcDbBlockBegin
  2
*Paper_Space
 70
     0
 10
0.0
 20
0.0
 30
0.0
  3
*Paper_Space
  1

  0
ENDBLK
  5
6E
330
6C
100
AcDbEntity
 67
     1
  8
0
100
AcDbBlockEnd
  0
BLOCK
  5
75
330
74
100
AcDbEntity
 67
     1
  8
0
100
AcDbBlockBegin
  2
*Paper_Space0
 70
     0
 10
0.0
 20
0.0
 30
0.0
  3
*Paper_Space0
  1

  0
ENDBLK
  5
76
330
74
100
AcDbEntity
 67
     1
  8
0
100
AcDbBlockEnd
  0
BLOCK
  5
FF
330
ED
100
AcDbEntity
  8
0
100
AcDbBlockBegin
  2
_ARDEX_ Lining - Various - Concrete Wall 200-729082-_X_ - AS-10 FOOTING JUNCTION NO STEP
 70
     0
 10
0.0
 20
0.0
 30
0.0
  3
_ARDEX_ Lining - Various - Concrete Wall 200-729082-_X_ - AS-10 FOOTING JUNCTION NO STEP
  1

  0
LINE
  5
EF
330
ED
100
AcDbEntity
  8
_ARDEX - BUTYNOL_
100
AcDbLine
 10
0.0
 20
62.24941801152346
 30
0.0
 11
0.0
 21
0.0
 31
0.0
1001
REVIT
1002
{
1070
     1
1000
771071
1002
}
1002
{
1070
     5
1000
706305
1002
}
1002
{
1070
     3
1000
335606
1002
}
  0
LINE
  5
F0
330
ED
100
AcDbEntity
  8
_ARDEX - BUTYNOL_
100
AcDbLine
 10
0.0
 20
200.0
 30
0.0
 11
624.9999999999998
 21
200.0
 31
0.0
1001
REVIT
1002
{
1070
     1
1000
771071
1002
}
1002
{
1070
     5
1000
706305
1002
}
1002
{
1070
     3
1000
335606
1002
}
  0
LINE
  5
F1
330
ED
100
AcDbEntity
  8
_ARDEX - BUTYNOL_
100
AcDbLine
 10
0.0
 20
0.0
 30
0.0
 11
50.00000000000002
 21
0.0
 31
0.0
1001
REVIT
1002
{
1070
     1
1000
771071
1002
}
1002
{
1070
     5
1000
706305
1002
}
1002
{
1070
     3
1000
335606
1002
}
  0
LINE
  5
F2
330
ED
100
AcDbEntity
  8
_ARDEX - BUTYNOL_
100
AcDbLine
 10
50.00000000000002
 20
0.0
 30
0.0
 11
624.9999999999998
 21
0.0
 31
0.0
1001
REVIT
1002
{
1070
     1
1000
771071
1002
}
1002
{
1070
     5
1000
706305
1002
}
1002
{
1070
     3
1000
335606
1002
}
  0
HATCH
  5
FC
330
ED
100
AcDbEntity
  8
_ARDEX - BUTYNOL_
 62
     8
420
  8421504
100
AcDbHatch
 10
0.0
 20
0.0
 30
0.0
210
0.0
220
0.0
230
1.0
  2
FP_3
 70
     0
 71
     0
 91
        1
 92
        1
 93
        9
 72
     1
 10
0.0000000000020304
 20
-0.0000000000059558
 11
625.0000000000021
 21
-0.0000000000059558
 72
     1
 10
625.0000000000021
 20
-0.0000000000059558
 11
625.0000000000021
 21
199.999999999997
 72
     1
 10
625.0000000000021
 20
199.999999999997
 11
0.0000000000020464
 21
199.999999999997
 72
     1
 10
0.0000000000020304
 20
199.999999999997
 11
0.0000000000020304
 21
111.492789114692
 72
     1
 10
0.0000000000020304
 20
111.492789114692
 11
9.709197695141808
 21
111.492789114692
 72
     1
 10
9.709197695141808
 20
111.492789114692
 11
9.709197695141808
 21
88.5072108852977
 72
     1
 10
9.709197695141808
 20
88.5072108852977
 11
0.0000000000020304
 21
88.5072108852977
 72
     1
 10
0.0000000000020304
 20
88.5072108852977
 11
0.0000000000020304
 21
62.24941801152036
 72
     1
 10
0.0000000000020304
 20
62.24941801152036
 11
0.0000000000020304
 21
-0.0000000000059543
 97
        0
 75
     0
 76
     2
 52
0.0
 41
1.0
 77
     0
 78
    17
 53
320.0
 43
-2368.269
 44
4049.233
 45
-6.376069190860413
 46
-72.87376369224633
 79
     2
 49
7.62
 49
-83.81999999999999
 53
265.0
 43
-2368.269
 44
4049.233
 45
76.42244396901353
 46
14.09698843026365
 79
     2
 49
6.096
 49
-67.056
 53
10.451
 43
-2368.801
 44
4043.161
 45
70.04687181019632
 46
-58.77696438747006
 79
     2
 49
6.475999999999999
 49
-71.236
 53
316.184
 43
-2347.949
 44
4049.233
 45
-16.81745398411556
 46
-108.4314191850874
 79
     2
 49
11.43
 49
-125.73
 53
6.636000000000001
 43
-2349.351
 44
4040.197
 45
98.97088531129579
 46
-94.96100284168411
 79
     2
 49
9.714
 49
-106.854
 53
261.184
 43
-2347.949
 44
4049.233
 45
98.97018347664499
 46
-94.96226825218121
 79
     2
 49
9.144
 49
-100.584
 53
291.0
 43
-2353.029
 44
4039.073
 45
-40.90653746997011
 46
-60.64565017557263
 79
     2
 49
7.62
 49
-83.81999999999999
 53
236.0
 43
-2353.029
 44
4039.073
 45
73.67493117054863
 46
-24.72083214648976
 79
     2
 49
6.096
 49
-67.056
 53
341.451
 43
-2356.438
 44
4034.018999999999
 45
32.76873672474287
 46
-85.36688870085688
 79
     2
 49
6.475999999999999
 49
-71.236
 53
307.5
 43
-2368.269
 44
4049.233
 45
33.82243249185381
 46
-1.2355247201055
 79
     5
 49
3.352999999999999
 49
-62.88999999999999
 49
3.352999999999999
 49
-64.71899999999997
 49
-67.30999999999998
 53
307.5
 43
-2368.269
 44
4049.233
 45
33.82243249185381
 46
-1.2355247201055
 79
     3
 49
-134.3149999999999
 49
3.352999999999999
 49
-63.95699999999999
 53
277.5
 43
-2368.269
 44
4049.233
 45
40.0725493001905
 46
-26.72814571914411
 79
     5
 49
3.353
 49
-35.458
 49
3.353
 49
-61.36600000000001
 49
-25.654
 53
277.5
 43
-2368.269
 44
4049.233
 45
40.0725493001905
 46
-26.72814571914411
 79
     3
 49
-103.53
 49
3.353
 49
-22.301
 53
237.5
 43
-2368.269
 44
4071.889999999999
 45
-2.292117344806715
 46
-54.23631751951488
 79
     5
 49
3.353
 49
-22.047
 49
3.353
 49
-75.895
 49
-105.156
 53
237.5
 43
-2368.269
 44
4071.889999999999
 45
-2.292117344806715
 46
-54.23631751951488
 79
     3
 49
-104.648
 49
3.353
 49
-101.803
 53
227.5
 43
-2368.269
 44
4082.05
 45
10.17013936074866
 46
-59.25157926488501
 79
     5
 49
3.352999999999999
 49
-29.66699999999999
 49
3.352999999999999
 49
-49.27599999999999
 49
-74.67599999999999
 53
227.5
 43
-2368.269
 44
4082.05
 45
10.17013936074866
 46
-59.25157926488501
 79
     3
 49
-85.64899999999999
 49
3.352999999999999
 49
-71.32299999999999
 98
        1
 10
0.0
 20
0.0
1001
REVIT
1002
{
1070
     1
1000
771071
1002
}
1002
{
1070
     5
1000
706305
1002
}
1002
{
1070
     3
1000
335606
1002
}
  0
LINE
  5
FD
330
ED
100
AcDbEntity
  8
_ARDEX - BUTYNOL_
370
    50
100
AcDbLine
 10
50.00000000000002
 20
-0.0000000000028087
 30
0.0
 11
624.9999999999998
 21
-0.0000000000028087
 31
0.0
1001
REVIT
1002
{
1070
     1
1000
771071
1002
}
1002
{
1070
     5
1000
706305
1002
}
1002
{
1070
     3
1000
335612
1002
}
  0
LINE
  5
FE
330
ED
100
AcDbEntity
  8
_ARDEX - BUTYNOL_
370
    50
100
AcDbLine
 10
624.9999999999998
 20
200.0
 30
0.0
 11
0.0
 21
200.0
 31
0.0
1001
REVIT
1002
{
1070
     1
1000
771071
1002
}
1002
{
1070
     5
1000
706305
1002
}
1002
{
1070
     3
1000
335612
1002
}
  0
ENDBLK
  5
100
330
ED
100
AcDbEntity
  8
0
100
AcDbBlockEnd
  0
BLOCK
  5
10B
330
102
100
AcDbEntity
  8
0
100
AcDbBlockBegin
  2
_ARDEX_ Waterstop - _ARDEX_ Water Stop-708192-_X_ - AS-10 FOOTING JUNCTION NO STEP
 70
     0
 10
0.0
 20
0.0
 30
0.0
  3
_ARDEX_ Waterstop - _ARDEX_ Water Stop-708192-_X_ - AS-10 FOOTING JUNCTION NO STEP
  1

  0
HATCH
  5
107
330
102
100
AcDbEntity
  8
_ARDEX - WELDTEC TANKING_
 62
     8
420
  7434356
100
AcDbHatch
 10
0.0
 20
0.0
 30
0.0
210
0.0
220
0.0
230
1.0
  2
SOLID
 70
     1
 71
     0
 91
        1
 92
        1
 93
        4
 72
     1
 10
0.0000000000032486
 20
0.0000000000020304
 11
0.0000000000032486
 21
9.709197695141808
 72
     1
 10
0.0000000000032486
 20
9.709197695141808
 11
-22.98557822939109
 21
9.709197695141808
 72
     1
 10
-22.98557822939109
 20
9.709197695141808
 11
-22.98557822939109
 21
0.0000000000020304
 72
     1
 10
-22.98557822939109
 20
0.0000000000020304
 11
0.0000000000032472
 21
0.0000000000020304
 97
        0
 75
     0
 76
     1
 98
        1
 10
0.0
 20
0.0
450
        0
451
        0
460
0.0
461
0.0
452
        0
462
0.0
453
        0
470

1001
REVIT
1002
{
1070
     1
1000
771070
1002
}
1002
{
1070
     5
1000
707735
1002
}
  0
LINE
  5
108
330
102
100
AcDbEntity
  8
_ARDEX - BUTYNOL_
370
    25
100
AcDbLine
 10
0.0
 20
0.0
 30
0.0
 11
0.0
 21
9.709197695139737
 31
0.0
1001
REVIT
1002
{
1070
     1
1000
771070
1002
}
1002
{
1070
     5
1000
707735
1002
}
1002
{
1070
     3
1000
335610
1002
}
  0
LINE
  5
109
330
102
100
AcDbEntity
  8
_ARDEX - BUTYNOL_
370
    25
100
AcDbLine
 10
0.0
 20
9.709197695139737
 30
0.0
 11
-22.98557822939426
 21
9.709197695139737
 31
0.0
1001
REVIT
1002
{
1070
     1
1000
771070
1002
}
1002
{
1070
     5
1000
707735
1002
}
1002
{
1070
     3
1000
335610
1002
}
  0
LINE
  5
10A
330
102
100
AcDbEntity
  8
_ARDEX - BUTYNOL_
370
    25
100
AcDbLine
 10
-22.98557822939426
 20
9.709197695139737
 30
0.0
 11
-22.98557822939426
 21
0.0
 31
0.0
1001
REVIT
1002
{
1070
     1
1000
771070
1002
}
1002
{
1070
     5
1000
707735
1002
}
1002
{
1070
     3
1000
335610
1002
}
  0
ENDBLK
  5
10C
330
102
100
AcDbEntity
  8
0
100
AcDbBlockEnd
  0
BLOCK
  5
117
330
10E
100
AcDbEntity
  8
0
100
AcDbBlockBegin
  2
_ARDEX_ Lining - Various - Protection Board-777913-_X_ - AS-10 FOOTING JUNCTION NO STEP
 70
     0
 10
0.0
 20
0.0
 30
0.0
  3
_ARDEX_ Lining - Various - Protection Board-777913-_X_ - AS-10 FOOTING JUNCTION NO STEP
  1

  0
HATCH
  5
114
330
10E
100
AcDbEntity
  8
_ARDEX - WELDTEC TANKING_
 62
     8
420
  8421504
100
AcDbHatch
 10
0.0
 20
0.0
 30
0.0
210
0.0
220
0.0
230
1.0
  2
FP_4
 70
     0
 71
     0
 91
        1
 92
        1
 93
        5
 72
     1
 10
0.000000000001895
 20
15.99999999999636
 11
0.000000000001895
 21
-0.0000000000064979
 72
     1
 10
0.000000000001895
 20
-0.0000000000064972
 11
241.2699028802464
 21
-0.0000000000062265
 72
     1
 10
241.2699028802464
 20
-0.0000000000062265
 11
247.0934266285068
 21
15.99999999999636
 72
     1
 10
247.0934266285068
 20
15.99999999999636
 11
222.880440644831
 21
15.99999999999609
 72
     1
 10
222.880440644831
 20
15.99999999999609
 11
0.0000000000019043
 21
15.99999999999636
 97
        0
 75
     0
 76
     2
 52
0.0
 41
1.0
 77
     0
 78
     2
 53
315.0
 43
-2117.118
 44
3794.742
 45
21.21320343559643
 46
21.21320343559643
 79
     0
 53
45.0
 43
-2117.118
 44
3794.742
 45
-21.21320343559643
 46
21.21320343559643
 79
     0
 98
        1
 10
0.0
 20
0.0
1001
REVIT
1002
{
1070
     1
1000
771078
1002
}
1002
{
1070
     5
1000
715094
1002
}
  0
LINE
  5
115
330
10E
100
AcDbEntity
  8
_ARDEX - BUTYNOL_
370
    18
100
AcDbLine
 10
0.0
 20
16.0
 30
0.0
 11
247.0934266285037
 21
16.0
 31
0.0
1001
REVIT
1002
{
1070
     1
1000
771078
1002
}
1002
{
1070
     5
1000
715094
1002
}
1002
{
1070
     3
1000
335608
1002
}
  0
LINE
  5
116
330
10E
100
AcDbEntity
  8
_ARDEX - BUTYNOL_
370
    18
100
AcDbLine
 10
0.0
 20
0.0
 30
0.0
 11
241.2699028802445
 21
0.0
 31
0.0
1001
REVIT
1002
{
1070
     1
1000
771078
1002
}
1002
{
1070
     5
1000
715094
1002
}
1002
{
1070
     3
1000
335608
1002
}
  0
ENDBLK
  5
118
330
10E
100
AcDbEntity
  8
0
100
AcDbBlockEnd
  0
BLOCK
  5
11F
330
11A
100
AcDbEntity
  8
0
100
AcDbBlockBegin
  2
_ARDEX_ Drain 100mm - _ARDEX_ Drain 100mm-718934-_X_ - AS-10 FOOTING JUNCTION NO STEP
 70
     0
 10
0.0
 20
0.0
 30
0.0
  3
_ARDEX_ Drain 100mm - _ARDEX_ Drain 100mm-718934-_X_ - AS-10 FOOTING JUNCTION NO STEP
  1

  0
ARC
  5
11B
330
11A
100
AcDbEntity
  8
_ARDEX - WELDTEC TANKING_
100
AcDbCircle
 10
0.0
 20
0.0000000000000008
 30
0.0
 40
49.99999999999998
100
AcDbArc
 50
254.9999999999994
 51
359.9999999999993
1001
REVIT
1002
{
1070
     1
1000
771092
1002
}
1002
{
1070
     5
1000
718934
1002
}
  0
ARC
  5
11C
330
11A
100
AcDbEntity
  8
_ARDEX - WELDTEC TANKING_
100
AcDbCircle
 10
0.0
 20
0.0000000000000093
 30
0.0
 40
50.00000000000003
100
AcDbArc
 50
359.9999999999996
 51
59.81886548049164
1001
REVIT
1002
{
1070
     1
1000
771092
1002
}
1002
{
1070
     5
1000
718934
1002
}
  0
ARC
  5
11D
330
11A
100
AcDbEntity
  8
_ARDEX - WELDTEC TANKING_
100
AcDbCircle
 10
0.0
 20
0.0000000000000093
 30
0.0
 40
47.99999999999995
100
AcDbArc
 50
0.0000000000003435
 51
180.0000000000002
1001
REVIT
1002
{
1070
     1
1000
771092
1002
}
1002
{
1070
     5
1000
718934
1002
}
  0
ARC
  5
11E
330
11A
100
AcDbEntity
  8
_ARDEX - WELDTEC TANKING_
100
AcDbCircle
 10
0.0
 20
-0.0000000000000076
 30
0.0
 40
47.99999999999996
100
AcDbArc
 50
180.0000000000001
 51
0.0000000000000509
1001
REVIT
1002
{
1070
     1
1000
771092
1002
}
1002
{
1070
     5
1000
718934
1002
}
  0
ENDBLK
  5
120
330
11A
100
AcDbEntity
  8
0
100
AcDbBlockEnd
  0
BLOCK
  5
138
330
122
100
AcDbEntity
  8
0
100
AcDbBlockBegin
  2
_ARDEX_ Concrete Base No Step without Chamfer - _ARDEX_ Concrete Base No Step without Chamfer-777883-_X_ - AS-10 FOOTING JUNCTION NO STEP
 70
     0
 10
0.0
 20
0.0
 30
0.0
  3
_ARDEX_ Concrete Base No Step without Chamfer - _ARDEX_ Concrete Base No Step without Chamfer-777883-_X_ - AS-10 FOOTING JUNCTION NO STEP
  1

  0
HATCH
  5
12D
330
122
100
AcDbEntity
  8
_ARDEX - WELDTEC TANKING_
 62
     8
420
  8421504
100
AcDbHatch
 10
0.0
 20
0.0
 30
0.0
210
0.0
220
0.0
230
1.0
  2
FP_5
 70
     0
 71
     0
 91
        1
 92
        1
 93
       10
 72
     1
 10
137.7505819884796
 20
-199.9999999999986
 11
650.0000000000024
 21
-199.9999999999986
 72
     1
 10
650.0000000000024
 20
-199.9999999999986
 11
850.0000000000035
 21
0.00000000000216
 72
     1
 10
850.0000000000035
 20
0.0000000000021657
 11
1171.567116394278
 21
0.0000000000021657
 72
     1
 10
1171.567116394278
 20
0.0000000000021657
 11
1171.567116394278
 21
200.0000000000023
 72
     1
 10
1171.567116394278
 20
200.0000000000023
 11
200.0000000000033
 21
200.0000000000023
 72
     1
 10
200.0000000000033
 20
200.0000000000023
 11
200.0000000000033
 21
150.0000000000026
 72
     1
 10
200.0000000000033
 20
150.0000000000026
 11
0.0000000000032401
 21
150.0000000000026
 72
     1
 10
0.0000000000032486
 20
150.0000000000026
 11
0.0000000000016243
 21
-174.9999999999981
 72
     1
 10
0.0000000000016243
 20
-174.9999999999981
 11
25.00000000000217
 21
-199.9999999999986
 72
     1
 10
25.00000000000217
 20
-199.9999999999986
 11
137.7505819884796
 21
-199.9999999999986
 97
        0
 75
     0
 76
     2
 52
0.0
 41
1.0
 77
     0
 78
    17
 53
50.0
 43
-3849.233
 44
-2218.269
 45
72.87376369224634
 46
-6.37606919086042
 79
     2
 49
7.62
 49
-83.81999999999999
 53
355.0
 43
-3849.233
 44
-2218.269
 45
-14.09698843026366
 46
76.42244396901353
 79
     2
 49
6.096
 49
-67.056
 53
100.451
 43
-3843.161
 44
-2218.801
 45
58.77696438747005
 46
70.04687181019632
 79
     2
 49
6.475999999999999
 49
-71.236
 53
46.184
 43
-3849.233
 44
-2197.949
 45
108.4314191850874
 46
-16.81745398411556
 79
     2
 49
11.43
 49
-125.73
 53
96.636
 43
-3840.197
 44
-2199.351
 45
94.96100284168408
 46
98.97088531129583
 79
     2
 49
9.714
 49
-106.854
 53
351.184
 43
-3849.233
 44
-2197.949
 45
94.96226825218121
 46
98.970183476645
 79
     2
 49
9.144
 49
-100.584
 53
21.0
 43
-3839.073
 44
-2203.029
 45
60.64565017557262
 46
-40.90653746997012
 79
     2
 49
7.62
 49
-83.81999999999999
 53
326.0
 43
-3839.073
 44
-2203.029
 45
24.72083214648978
 46
73.67493117054863
 79
     2
 49
6.096
 49
-67.056
 53
71.45100000000001
 43
-3834.019
 44
-2206.438
 45
85.36688870085688
 46
32.76873672474288
 79
     2
 49
6.475999999999999
 49
-71.236
 53
37.5
 43
-3849.233
 44
-2218.269
 45
1.2355247201055
 46
33.82243249185381
 79
     5
 49
3.353
 49
-62.89
 49
3.353
 49
-64.71899999999999
 49
-67.31
 53
37.5
 43
-3849.233
 44
-2218.269
 45
1.2355247201055
 46
33.82243249185381
 79
     3
 49
-134.315
 49
3.353
 49
-63.957
 53
7.499999999999999
 43
-3849.233
 44
-2218.269
 45
26.72814571914412
 46
40.0725493001905
 79
     5
 49
3.353
 49
-35.458
 49
3.353
 49
-61.36600000000001
 49
-25.654
 53
7.499999999999999
 43
-3849.233
 44
-2218.269
 45
26.72814571914412
 46
40.0725493001905
 79
     3
 49
-103.53
 49
3.353
 49
-22.301
 53
327.5
 43
-3871.89
 44
-2218.269
 45
54.23631751951487
 46
-2.292117344806701
 79
     5
 49
3.353
 49
-22.047
 49
3.353
 49
-75.895
 49
-105.156
 53
327.5
 43
-3871.89
 44
-2218.269
 45
54.23631751951487
 46
-2.292117344806701
 79
     3
 49
-104.648
 49
3.353
 49
-101.803
 53
317.5
 43
-3882.05
 44
-2218.269
 45
59.25157926488501
 46
10.17013936074866
 79
     5
 49
3.353
 49
-29.667
 49
3.353
 49
-49.276
 49
-74.676
 53
317.5
 43
-3882.05
 44
-2218.269
 45
59.25157926488501
 46
10.17013936074866
 79
     3
 49
-85.64899999999999
 49
3.353
 49
-71.323
 98
        1
 10
0.0
 20
0.0
1001
REVIT
1002
{
1070
     1
1000
771103
1002
}
1002
{
1070
     5
1000
771491
1002
}
  0
LINE
  5
12E
330
122
100
AcDbEntity
  8
_ARDEX - BUTYNOL_
370
    50
100
AcDbLine
 10
24.99999999999892
 20
-200.0000000000007
 30
0.0
 11
649.9999999999988
 21
-200.0000000000007
 31
0.0
1001
REVIT
1002
{
1070
     1
1000
771103
1002
}
1002
{
1070
     5
1000
771491
1002
}
1002
{
1070
     3
1000
335612
1002
}
  0
LINE
  5
12F
330
122
100
AcDbEntity
  8
_ARDEX - BUTYNOL_
370
    50
100
AcDbLine
 10
649.9999999999988
 20
-200.0000000000006
 30
0.0
 11
849.9999999999998
 21
0.0000000000001015
 31
0.0
1001
REVIT
1002
{
1070
     1
1000
771103
1002
}
1002
{
1070
     5
1000
771491
1002
}
1002
{
1070
     3
1000
335612
1002
}
  0
LINE
  5
130
330
122
100
AcDbEntity
  8
_ARDEX - BUTYNOL_
370
    50
100
AcDbLine
 10
849.9999999999998
 20
0.0000000000000677
 30
0.0
 11
909.1280958321673
 21
0.0
 31
0.0
1001
REVIT
1002
{
1070
     1
1000
771103
1002
}
1002
{
1070
     5
1000
771491
1002
}
1002
{
1070
     3
1000
335612
1002
}
  0
LINE
  5
131
330
122
100
AcDbEntity
  8
_ARDEX - BUTYNOL_
370
    50
100
AcDbLine
 10
909.1280958321677
 20
-0.0000000000000677
 30
0.0
 11
1171.567116394275
 21
-0.0000000000000677
 31
0.0
1001
REVIT
1002
{
1070
     1
1000
771103
1002
}
1002
{
1070
     5
1000
771491
1002
}
1002
{
1070
     3
1000
335612
1002
}
  0
LINE
  5
132
330
122
100
AcDbEntity
  8
_ARDEX - BUTYNOL_
370
    50
100
AcDbLine
 10
1171.567116394275
 20
200.0000000000002
 30
0.0
 11
909.1280958321677
 21
200.0000000000002
 31
0.0
1001
REVIT
1002
{
1070
     1
1000
771103
1002
}
1002
{
1070
     5
1000
771491
1002
}
1002
{
1070
     3
1000
335612
1002
}
  0
LINE
  5
133
330
122
100
AcDbEntity
  8
_ARDEX - BUTYNOL_
370
    50
100
AcDbLine
 10
909.1280958321675
 20
200.0000000000001
 30
0.0
 11
200.0
 21
200.0000000000001
 31
0.0
1001
REVIT
1002
{
1070
     1
1000
771103
1002
}
1002
{
1070
     5
1000
771491
1002
}
1002
{
1070
     3
1000
335612
1002
}
  0
LINE
  5
134
330
122
100
AcDbEntity
  8
_ARDEX - BUTYNOL_
370
    50
100
AcDbLine
 10
200.0
 20
200.0000000000001
 30
0.0
 11
200.0
 21
150.0000000000001
 31
0.0
1001
REVIT
1002
{
1070
     1
1000
771103
1002
}
1002
{
1070
     5
1000
771491
1002
}
1002
{
1070
     3
1000
335612
1002
}
  0
LINE
  5
135
330
122
100
AcDbEntity
  8
_ARDEX - BUTYNOL_
370
    50
100
AcDbLine
 10
200.0
 20
150.0000000000001
 30
0.0
 11
0.0000000000002369
 21
150.0000000000001
 31
0.0
1001
REVIT
1002
{
1070
     1
1000
771103
1002
}
1002
{
1070
     5
1000
771491
1002
}
1002
{
1070
     3
1000
335612
1002
}
  0
LINE
  5
136
330
122
100
AcDbEntity
  8
_ARDEX - BUTYNOL_
370
    50
100
AcDbLine
 10
0.0000000000002369
 20
150.0000000000001
 30
0.0
 11
-0.0000000000014889
 21
-175.0
 31
0.0
1001
REVIT
1002
{
1070
     1
1000
771103
1002
}
1002
{
1070
     5
1000
771491
1002
}
1002
{
1070
     3
1000
335612
1002
}
  0
LINE
  5
137
330
122
100
AcDbEntity
  8
_ARDEX - BUTYNOL_
370
    50
100
AcDbLine
 10
-0.0000000000014847
 20
-175.0
 30
0.0
 11
24.99999999999895
 21
-200.0000000000007
 31
0.0
1001
REVIT
1002
{
1070
     1
1000
771103
1002
}
1002
{
1070
     5
1000
771491
1002
}
1002
{
1070
     3
1000
335612
1002
}
  0
ENDBLK
  5
139
330
122
100
AcDbEntity
  8
0
100
AcDbBlockEnd
  0
BLOCK
  5
13D
330
13B
100
AcDbEntity
  8
0
100
AcDbBlockBegin
  2
_ARDEX_ Lines - WPM240 Primer-729093-_X_ - AS-10 FOOTING JUNCTION NO STEP
 70
     0
 10
0.0
 20
0.0
 30
0.0
  3
_ARDEX_ Lines - WPM240 Primer-729093-_X_ - AS-10 FOOTING JUNCTION NO STEP
  1

  0
LINE
  5
13C
330
13B
100
AcDbEntity
  8
_ARDEX - BUTYNOL_
370
    50
100
AcDbLine
 10
622.1005050633861
 20
0.0
 30
0.0
 11
-0.0000000000021657
 21
0.0
 31
0.0
1001
REVIT
1002
{
1070
     1
1000
771104
1002
}
1002
{
1070
     5
1000
708929
1002
}
1002
{
1070
     3
1000
335612
1002
}
  0
ENDBLK
  5
13E
330
13B
100
AcDbEntity
  8
0
100
AcDbBlockEnd
  0
BLOCK
  5
142
330
140
100
AcDbEntity
  8
0
100
AcDbBlockBegin
  2
_ARDEX_ Lines - WPM240 Primer-775742-_X_ - AS-10 FOOTING JUNCTION NO STEP
 70
     0
 10
0.0
 20
0.0
 30
0.0
  3
_ARDEX_ Lines - WPM240 Primer-775742-_X_ - AS-10 FOOTING JUNCTION NO STEP
  1

  0
LINE
  5
141
330
140
100
AcDbEntity
  8
_ARDEX - BUTYNOL_
370
    50
100
AcDbLine
 10
21.21320343559368
 20
0.0
 30
0.0
 11
-0.0000000000021657
 21
0.0
 31
0.0
1001
REVIT
1002
{
1070
     1
1000
771105
1002
}
1002
{
1070
     5
1000
708929
1002
}
1002
{
1070
     3
1000
335612
1002
}
  0
ENDBLK
  5
143
330
140
100
AcDbEntity
  8
0
100
AcDbBlockEnd
  0
BLOCK
  5
147
330
145
100
AcDbEntity
  8
0
100
AcDbBlockBegin
  2
_ARDEX_ Lines - WPM240 Primer-775743-_X_ - AS-10 FOOTING JUNCTION NO STEP
 70
     0
 10
0.0
 20
0.0
 30
0.0
  3
_ARDEX_ Lines - WPM240 Primer-775743-_X_ - AS-10 FOOTING JUNCTION NO STEP
  1

  0
LINE
  5
146
330
145
100
AcDbEntity
  8
_ARDEX - BUTYNOL_
370
    50
100
AcDbLine
 10
307.0725261682867
 20
0.0
 30
0.0
 11
-0.0000000000021657
 21
0.0
 31
0.0
1001
REVIT
1002
{
1070
     1
1000
771106
1002
}
1002
{
1070
     5
1000
708929
1002
}
1002
{
1070
     3
1000
335612
1002
}
  0
ENDBLK
  5
148
330
145
100
AcDbEntity
  8
0
100
AcDbBlockEnd
  0
BLOCK
  5
14D
330
14A
100
AcDbEntity
  8
0
100
AcDbBlockBegin
  2
_ARDEX_ Lines - DPC-772350-_X_ - AS-10 FOOTING JUNCTION NO STEP
 70
     0
 10
0.0
 20
0.0
 30
0.0
  3
_ARDEX_ Lines - DPC-772350-_X_ - AS-10 FOOTING JUNCTION NO STEP
  1

  0
LINE
  5
14C
330
14A
100
AcDbEntity
  8
_ARDEX - BUTYNOL_
  6
Dash
370
    25
100
AcDbLine
 10
313.4666113308816
 20
0.0
 30
0.0
 11
-0.000000000001895
 21
0.0
 31
0.0
1001
REVIT
1002
{
1070
     1
1000
771109
1002
}
1002
{
1070
     5
1000
709010
1002
}
1002
{
1070
     3
1000
342010
1002
}
  0
ENDBLK
  5
14E
330
14A
100
AcDbEntity
  8
0
100
AcDbBlockEnd
  0
BLOCK
  5
152
330
150
100
AcDbEntity
  8
0
100
AcDbBlockBegin
  2
_ARDEX_ Lines - DPC-772715-_X_ - AS-10 FOOTING JUNCTION NO STEP
 70
     0
 10
0.0
 20
0.0
 30
0.0
  3
_ARDEX_ Lines - DPC-772715-_X_ - AS-10 FOOTING JUNCTION NO STEP
  1

  0
LINE
  5
151
330
150
100
AcDbEntity
  8
_ARDEX - BUTYNOL_
  6
Dash
370
    25
100
AcDbLine
 10
636.6421356237306
 20
0.0
 30
0.0
 11
-0.000000000001895
 21
0.0
 31
0.0
1001
REVIT
1002
{
1070
     1
1000
771111
1002
}
1002
{
1070
     5
1000
709010
1002
}
1002
{
1070
     3
1000
342010
1002
}
  0
ENDBLK
  5
153
330
150
100
AcDbEntity
  8
0
100
AcDbBlockEnd
  0
BLOCK
  5
157
330
155
100
AcDbEntity
  8
0
100
AcDbBlockBegin
  2
_ARDEX_ Lines - DPC-772351-_X_ - AS-10 FOOTING JUNCTION NO STEP
 70
     0
 10
0.0
 20
0.0
 30
0.0
  3
_ARDEX_ Lines - DPC-772351-_X_ - AS-10 FOOTING JUNCTION NO STEP
  1

  0
LINE
  5
156
330
155
100
AcDbEntity
  8
_ARDEX - BUTYNOL_
  6
Dash
370
    25
100
AcDbLine
 10
282.8427124746218
 20
0.0
 30
0.0
 11
-0.000000000001895
 21
0.0
 31
0.0
1001
REVIT
1002
{
1070
     1
1000
772342
1002
}
1002
{
1070
     5
1000
709010
1002
}
1002
{
1070
     3
1000
342010
1002
}
  0
ENDBLK
  5
158
330
155
100
AcDbEntity
  8
0
100
AcDbBlockEnd
  0
BLOCK
  5
15C
330
15A
100
AcDbEntity
  8
0
100
AcDbBlockBegin
  2
_ARDEX_ Lines - WPM 3000X DPM Membrane-777066-_X_ - AS-10 FOOTING JUNCTION NO STEP
 70
     0
 10
0.0
 20
0.0
 30
0.0
  3
_ARDEX_ Lines - WPM 3000X DPM Membrane-777066-_X_ - AS-10 FOOTING JUNCTION NO STEP
  1

  0
LINE
  5
15B
330
15A
100
AcDbEntity
  8
_ARDEX - WELDTEC TANKING_
 62
   133
420
  7589074
370
    90
100
AcDbLine
 10
613.7499999999968
 20
0.0
 30
0.0
 11
-0.0000000000027072
 21
0.0
 31
0.0
1001
REVIT
1002
{
1070
     1
1000
775754
1002
}
1002
{
1070
     5
1000
767633
1002
}
1002
{
1070
     3
1000
614484
1002
}
  0
ENDBLK
  5
15D
330
15A
100
AcDbEntity
  8
0
100
AcDbBlockEnd
  0
BLOCK
  5
18E
330
186
100
AcDbEntity
  8
0
100
AcDbBlockBegin
  2
_ARDEX_ Lining - Various - Protection Board-732926-_X_ - AS-10 FOOTING JUNCTION NO STEP
 70
     0
 10
0.0
 20
0.0
 30
0.0
  3
_ARDEX_ Lining - Various - Protection Board-732926-_X_ - AS-10 FOOTING JUNCTION NO STEP
  1

  0
HATCH
  5
18B
330
186
100
AcDbEntity
  8
_ARDEX - WELDTEC TANKING_
 62
     8
420
  8421504
100
AcDbHatch
 10
0.0
 20
0.0
 30
0.0
210
0.0
220
0.0
230
1.0
  2
FP_7
 70
     0
 71
     0
 91
        1
 92
        1
 93
        4
 72
     1
 10
0.0000000000032486
 20
-0.0000000000029779
 11
35.35533905933095
 21
-0.0000000000032486
 72
     1
 10
35.35533905933095
 20
-0.0000000000032486
 11
27.89441652884966
 21
15.99999999999961
 72
     1
 10
27.89441652884966
 20
15.99999999999961
 11
-5.823523748257045
 21
15.99999999999961
 72
     1
 10
-5.823523748257047
 20
15.99999999999961
 11
0.000000000003249
 21
-0.000000000002979
 97
        0
 75
     0
 76
     2
 52
0.0
 41
1.0
 77
     0
 78
     2
 53
0.0
 43
-4350.92
 44
1015.655
 45
0.0
 46
30.0
 79
     0
 53
90.0
 43
-4350.92
 44
1015.655
 45
-30.0
 46
0.0000000000000018
 79
     0
 98
        1
 10
0.0
 20
0.0
1001
REVIT
1002
{
1070
     1
1000
771159
1002
}
1002
{
1070
     5
1000
715094
1002
}
  0
LINE
  5
18C
330
186
100
AcDbEntity
  8
_ARDEX - BUTYNOL_
370
    18
100
AcDbLine
 10
-5.823523748259212
 20
16.0
 30
0.0
 11
27.8944165288477
 21
16.0
 31
0.0
1001
REVIT
1002
{
1070
     1
1000
771159
1002
}
1002
{
1070
     5
1000
715094
1002
}
1002
{
1070
     3
1000
335608
1002
}
  0
LINE
  5
18D
330
186
100
AcDbEntity
  8
_ARDEX - BUTYNOL_
370
    18
100
AcDbLine
 10
0.0
 20
0.0
 30
0.0
 11
35.35533905932769
 21
0.0
 31
0.0
1001
REVIT
1002
{
1070
     1
1000
771159
1002
}
1002
{
1070
     5
1000
715094
1002
}
1002
{
1070
     3
1000
335608
1002
}
  0
ENDBLK
  5
18F
330
186
100
AcDbEntity
  8
0
100
AcDbBlockEnd
  0
BLOCK
  5
199
330
191
100
AcDbEntity
  8
0
100
AcDbBlockBegin
  2
_ARDEX_ Lining - Various - Protection Board-732857-_X_ - AS-10 FOOTING JUNCTION NO STEP
 70
     0
 10
0.0
 20
0.0
 30
0.0
  3
_ARDEX_ Lining - Various - Protection Board-732857-_X_ - AS-10 FOOTING JUNCTION NO STEP
  1

  0
HATCH
  5
196
330
191
100
AcDbEntity
  8
_ARDEX - WELDTEC TANKING_
 62
     8
420
  8421504
100
AcDbHatch
 10
0.0
 20
0.0
 30
0.0
210
0.0
220
0.0
230
1.0
  2
FP_8
 70
     0
 71
     0
 91
        1
 92
        1
 93
        4
 72
     1
 10
0.0000000000024365
 20
-0.0000000000062265
 11
611.8933982822044
 21
-0.0000000000062265
 72
     1
 10
611.8933982822044
 20
-0.0000000000062265
 11
611.8933982822044
 21
15.99999999999663
 72
     1
 10
611.8933982822044
 20
15.99999999999663
 11
5.823523748262687
 21
15.99999999999663
 72
     1
 10
5.823523748262732
 20
15.99999999999663
 11
0.0000000000024363
 21
-0.0000000000062261
 97
        0
 75
     0
 76
     2
 52
0.0
 41
1.0
 77
     0
 78
     2
 53
315.0
 43
-2383.388
 44
3819.742
 45
21.21320343559643
 46
21.21320343559643
 79
     0
 53
45.0
 43
-2383.388
 44
3819.742
 45
-21.21320343559643
 46
21.21320343559643
 79
     0
 98
        1
 10
0.0
 20
0.0
1001
REVIT
1002
{
1070
     1
1000
771160
1002
}
1002
{
1070
     5
1000
715094
1002
}
  0
LINE
  5
197
330
191
100
AcDbEntity
  8
_ARDEX - BUTYNOL_
370
    18
100
AcDbLine
 10
5.823523748259212
 20
16.0
 30
0.0
 11
611.8933982822015
 21
16.0
 31
0.0
1001
REVIT
1002
{
1070
     1
1000
771160
1002
}
1002
{
1070
     5
1000
715094
1002
}
1002
{
1070
     3
1000
335608
1002
}
  0
LINE
  5
198
330
191
100
AcDbEntity
  8
_ARDEX - BUTYNOL_
370
    18
100
AcDbLine
 10
0.0
 20
0.0
 30
0.0
 11
611.8933982822015
 21
0.0
 31
0.0
1001
REVIT
1002
{
1070
     1
1000
771160
1002
}
1002
{
1070
     5
1000
715094
1002
}
1002
{
1070
     3
1000
335608
1002
}
  0
ENDBLK
  5
19A
330
191
100
AcDbEntity
  8
0
100
AcDbBlockEnd
  0
BLOCK
  5
19F
330
19D
100
AcDbEntity
  8
0
100
AcDbBlockBegin
  2
_ARDEX_ Lines - DPC-775548-_X_ - AS-10 FOOTING JUNCTION NO STEP
 70
     0
 10
0.0
 20
0.0
 30
0.0
  3
_ARDEX_ Lines - DPC-775548-_X_ - AS-10 FOOTING JUNCTION NO STEP
  1

  0
LINE
  5
19E
330
19D
100
AcDbEntity
  8
_ARDEX - BUTYNOL_
  6
Dash
370
    25
100
AcDbLine
 10
43.14421927291251
 20
0.0
 30
0.0
 11
-0.000000000001895
 21
0.0
 31
0.0
1001
REVIT
1002
{
1070
     1
1000
772528
1002
}
1002
{
1070
     5
1000
709010
1002
}
1002
{
1070
     3
1000
342010
1002
}
  0
ENDBLK
  5
1A0
330
19D
100
AcDbEntity
  8
0
100
AcDbBlockEnd
  0
BLOCK
  5
1A4
330
1A2
100
AcDbEntity
  8
0
100
AcDbBlockBegin
  2
_ARDEX_ Lines - DPC-775549-_X_ - AS-10 FOOTING JUNCTION NO STEP
 70
     0
 10
0.0
 20
0.0
 30
0.0
  3
_ARDEX_ Lines - DPC-775549-_X_ - AS-10 FOOTING JUNCTION NO STEP
  1

  0
LINE
  5
1A3
330
1A2
100
AcDbEntity
  8
_ARDEX - BUTYNOL_
  6
Dash
370
    25
100
AcDbLine
 10
160.0000000000005
 20
0.0
 30
0.0
 11
-0.000000000001895
 21
0.0
 31
0.0
1001
REVIT
1002
{
1070
     1
1000
772628
1002
}
1002
{
1070
     5
1000
709010
1002
}
1002
{
1070
     3
1000
342010
1002
}
  0
ENDBLK
  5
1A5
330
1A2
100
AcDbEntity
  8
0
100
AcDbBlockEnd
  0
BLOCK
  5
1AC
330
1AA
100
AcDbEntity
  8
0
100
AcDbBlockBegin
  2
_ARDEX_ Lines - DPC-775570-_X_ - AS-10 FOOTING JUNCTION NO STEP
 70
     0
 10
0.0
 20
0.0
 30
0.0
  3
_ARDEX_ Lines - DPC-775570-_X_ - AS-10 FOOTING JUNCTION NO STEP
  1

  0
LINE
  5
1AB
330
1AA
100
AcDbEntity
  8
_ARDEX - BUTYNOL_
  6
Dash
370
    25
100
AcDbLine
 10
7.916975545515563
 20
0.0
 30
0.0
 11
-0.000000000001895
 21
0.0
 31
0.0
1001
REVIT
1002
{
1070
     1
1000
775569
1002
}
1002
{
1070
     5
1000
709010
1002
}
1002
{
1070
     3
1000
342010
1002
}
  0
ENDBLK
  5
1AD
330
1AA
100
AcDbEntity
  8
0
100
AcDbBlockEnd
  0
BLOCK
  5
1B1
330
1AF
100
AcDbEntity
  8
0
100
AcDbBlockBegin
  2
_ARDEX_ Lines - DPC-775632-_X_ - AS-10 FOOTING JUNCTION NO STEP
 70
     0
 10
0.0
 20
0.0
 30
0.0
  3
_ARDEX_ Lines - DPC-775632-_X_ - AS-10 FOOTING JUNCTION NO STEP
  1

  0
LINE
  5
1B0
330
1AF
100
AcDbEntity
  8
_ARDEX - BUTYNOL_
  6
Dash
370
    25
100
AcDbLine
 10
70.0
 20
0.0
 30
0.0
 11
-0.000000000001895
 21
0.0
 31
0.0
1001
REVIT
1002
{
1070
     1
1000
775631
1002
}
1002
{
1070
     5
1000
709010
1002
}
1002
{
1070
     3
1000
342010
1002
}
  0
ENDBLK
  5
1B2
330
1AF
100
AcDbEntity
  8
0
100
AcDbBlockEnd
  0
BLOCK
  5
1B6
330
1B4
100
AcDbEntity
  8
0
100
AcDbBlockBegin
  2
_ARDEX_ Lines - WPM 3000X DPM Membrane-777067-_X_ - AS-10 FOOTING JUNCTION NO STEP
 70
     0
 10
0.0
 20
0.0
 30
0.0
  3
_ARDEX_ Lines - WPM 3000X DPM Membrane-777067-_X_ - AS-10 FOOTING JUNCTION NO STEP
  1

  0
LINE
  5
1B5
330
1B4
100
AcDbEntity
  8
_ARDEX - WELDTEC TANKING_
 62
   133
420
  7589074
370
    90
100
AcDbLine
 10
28.5355339059308
 20
0.0
 30
0.0
 11
-0.0000000000027072
 21
0.0
 31
0.0
1001
REVIT
1002
{
1070
     1
1000
776339
1002
}
1002
{
1070
     5
1000
767633
1002
}
1002
{
1070
     3
1000
614484
1002
}
  0
ENDBLK
  5
1B7
330
1B4
100
AcDbEntity
  8
0
100
AcDbBlockEnd
  0
BLOCK
  5
1BB
330
1B9
100
AcDbEntity
  8
0
100
AcDbBlockBegin
  2
_ARDEX_ Lines - WPM 3000X DPM Membrane-777068-_X_ - AS-10 FOOTING JUNCTION NO STEP
 70
     0
 10
0.0
 20
0.0
 30
0.0
  3
_ARDEX_ Lines - WPM 3000X DPM Membrane-777068-_X_ - AS-10 FOOTING JUNCTION NO STEP
  1

  0
LINE
  5
1BA
330
1B9
100
AcDbEntity
  8
_ARDEX - WELDTEC TANKING_
 62
   133
420
  7589074
370
    90
100
AcDbLine
 10
438.507860029312
 20
0.0
 30
0.0
 11
-0.0000000000027072
 21
0.0
 31
0.0
1001
REVIT
1002
{
1070
     1
1000
776611
1002
}
1002
{
1070
     5
1000
767633
1002
}
1002
{
1070
     3
1000
614484
1002
}
  0
ENDBLK
  5
1BC
330
1B9
100
AcDbEntity
  8
0
100
AcDbBlockEnd
  0
BLOCK
  5
1C0
330
1BE
100
AcDbEntity
  8
0
100
AcDbBlockBegin
  2
_ARDEX_ Lines - WPM 3000X DPM Membrane-776765-_X_ - AS-10 FOOTING JUNCTION NO STEP
 70
     0
 10
0.0
 20
0.0
 30
0.0
  3
_ARDEX_ Lines - WPM 3000X DPM Membrane-776765-_X_ - AS-10 FOOTING JUNCTION NO STEP
  1

  0
LINE
  5
1BF
330
1BE
100
AcDbEntity
  8
_ARDEX - WELDTEC TANKING_
 62
   133
420
  7589074
370
    90
100
AcDbLine
 10
664.9865771182976
 20
0.0
 30
0.0
 11
-0.0000000000027072
 21
0.0
 31
0.0
1001
REVIT
1002
{
1070
     1
1000
776764
1002
}
1002
{
1070
     5
1000
767633
1002
}
1002
{
1070
     3
1000
614484
1002
}
  0
ENDBLK
  5
1C1
330
1BE
100
AcDbEntity
  8
0
100
AcDbBlockEnd
  0
BLOCK
  5
274
330
213
100
AcDbEntity
  8
0
100
AcDbBlockBegin
  2
_ARDEX_ Landscape Title block Weldtec Tanking - ARDEX Logo_dwg-792302-FOOTING JUNCTION NO STEP 1
 70
     0
 10
0.0
 20
0.0
 30
0.0
  3
_ARDEX_ Landscape Title block Weldtec Tanking - ARDEX Logo_dwg-792302-FOOTING JUNCTION NO STEP 1
  1

  0
HATCH
  5
273
330
213
100
AcDbEntity
  8
_ARDEX - WELDTEC TANKING_
100
AcDbHatch
 10
0.0
 20
0.0
 30
0.0
210
0.0
220
0.0
230
1.0
  2
SOLID
 70
     1
 71
     0
 91
       10
 92
        1
 93
        9
 72
     2
 10
124477.6924476593
 20
57717.91884407958
 40
95604.56878771125
 50
119.6582597659365
 51
135.2772449014122
 73
     1
 72
     2
 10
97569.92099523827
 20
80348.69210974658
 40
60628.55096713104
 50
132.5784142254349
 51
167.1951084870361
 73
     1
 72
     2
 10
84430.2544945385
 20
83335.13079417297
 40
47153.77261030999
 50
167.1951084870365
 51
230.8048915129539
 73
     1
 72
     1
 10
54630.80824474616
 20
46791.03038671248
 11
61031.0658797229
 21
58828.16430584775
 72
     2
 10
101776.0882193553
 20
92587.59123374682
 40
52913.66318785065
 50
140.3564374123571
 51
160.4021121620632
 73
     0
 72
     1
 10
51927.72315465329
 20
74839.45746330507
 11
64132.70340177394
 21
81604.78848708596
 72
     1
 10
64132.70340177394
 20
81604.78848708596
 11
64132.70340177394
 21
42419.71860701207
 72
     1
 10
64132.70340177394
 20
42419.71860701207
 11
77170.09142470383
 21
42419.71860701207
 72
     1
 10
77170.09142470383
 20
42419.71860701207
 11
77170.09142470405
 21
140797.5460612086
 97
        0
 92
        1
 93
       15
 72
     1
 10
99587.9892175987
 20
42419.71860701207
 11
99587.9892175987
 21
93150.58336594923
 72
     1
 10
99587.9892175987
 20
93150.58336594923
 11
104323.244612749
 21
94781.06255447839
 72
     2
 10
104981.1789583829
 20
91893.80516411493
 40
2961.272166041676
 50
257.1629146881614
 51
358.8370853117459
 73
     0
 72
     1
 10
107941.8411889871
 20
91953.90506134176
 11
107941.841188987
 21
42419.71860701207
 72
     1
 10
107941.841188987
 20
42419.71860701207
 11
121218.1847411904
 21
42419.7186070116
 72
     1
 10
121218.1847411904
 20
42419.7186070116
 11
121218.1847411906
 21
100325.0440555206
 72
     2
 10
115257.0429927786
 20
99877.23760612903
 40
5977.937902050918
 50
4.296042690475857
 51
69.70395730952316
 73
     1
 72
     2
 10
117146.8808736564
 20
109112.6270894137
 40
3633.253173235043
 50
272.8987004041956
 51
343.1012995957967
 73
     1
 72
     2
 10
107238.4034856646
 20
112122.807202992
 40
13988.8849002001
 50
343.1012995958001
 51
357.9328247994059
 73
     1
 72
     1
 10
121218.1847411906
 20
111618.2115245613
 11
121218.1847411905
 21
150938.3506316522
 72
     2
 10
117501.9377644241
 20
150938.3506316523
 40
3716.246976766372
 50
359.9999999999992
 51
450.0000000000004
 73
     1
 72
     1
 10
117501.9377644241
 20
154654.5976084187
 11
113759.3810577393
 21
154654.5976084182
 72
     2
 10
138821.7376305251
 20
43198.45589605923
 40
114239.1931098381
 50
102.672909136411
 51
117.4995807340575
 73
     1
 72
     1
 10
86072.69013612203
 20
144530.243755645
 11
86072.69013612182
 21
42419.71860701206
 72
     1
 10
86072.69013612182
 20
42419.71860701207
 11
99587.9892175987
 21
42419.71860701207
 97
        0
 92
        1
 93
        6
 72
     1
 10
99587.9892175987
 20
106990.7139084901
 11
106513.3266407933
 21
109375.2988146446
 72
     2
 10
105781.2900249622
 20
111413.010849934
 40
2165.213140935683
 50
289.7605409069777
 51
356.2394590929184
 73
     1
 72
     1
 10
107941.8411889871
 20
111271.001648431
 11
107941.8411889873
 21
136146.3715334163
 72
     2
 10
106971.8497563286
 20
136110.2439563157
 40
970.663989884431
 50
2.133009904533575
 51
112.1330099047764
 73
     1
 72
     1
 10
106606.1443298939
 20
137009.3813887111
 11
99587.9892175987
 21
133736.7619137283
 72
     1
 10
99587.9892175987
 20
133736.7619137283
 11
99587.9892175987
 21
106990.7139084901
 97
        0
 92
        1
 93
        3
 72
     1
 10
51087.04573740561
 20
89526.02661651836
 11
64132.70340177392
 21
96757.35274203249
 72
     1
 10
64132.70340177394
 20
96757.35274203249
 11
64132.70340177408
 21
113061.0160419619
 72
     2
 10
86373.34223488702
 20
85349.67085119694
 40
35532.58600196028
 50
128.7499156981673
 51
173.2500843018337
 73
     1
 97
        0
 92
        1
 93
        7
 72
     2
 10
159498.6066256473
 20
47171.09768479351
 40
4751.379077781432
 50
269.9999999999983
 51
360.0000000000004
 73
     1
 72
     1
 10
164249.9857034287
 20
47171.09768479354
 11
164249.9857034286
 21
148929.7251247162
 72
     2
 10
153104.0551340759
 20
145652.2312742628
 40
11617.81968342559
 50
16.38612894579416
 51
85.61387105420656
 73
     1
 72
     1
 10
153992.558609905
 20
157236.0258067134
 11
135476.7284421168
 21
157236.025806713
 72
     2
 10
135476.7284421172
 20
132203.633223968
 40
25032.39258274507
 50
90.00000000000087
 51
104.0000000000446
 73
     1
 72
     1
 10
129420.8445770855
 20
156492.4567654637
 11
129420.8445770854
 21
42419.7186070116
 72
     1
 10
129420.8445770854
 20
42419.7186070116
 11
159498.6066256472
 21
42419.71860701208
 97
        0
 92
        1
 93
        6
 72
     1
 10
142697.1881292888
 20
55489.83103482368
 11
149159.4554178724
 21
55489.831034824
 72
     2
 10
149159.4554178724
 20
57304.01776817661
 40
1814.186733352632
 50
270.0000000000007
 51
360.000000000001
 73
     1
 72
     1
 10
150973.642151225
 20
57304.01776817664
 11
150973.642151225
 21
141389.8290366245
 72
     2
 10
148487.8771841638
 20
141389.8290366245
 40
2485.764967061216
 50
0.0000000000003499
 51
90.00000000000033
 73
     1
 72
     1
 10
148487.8771841638
 20
143875.5940036857
 11
142697.1881292891
 21
143875.5940036856
 72
     1
 10
142697.1881292891
 20
143875.5940036856
 11
142697.1881292888
 21
55489.83103482369
 97
        0
 92
        1
 93
       12
 72
     1
 10
172919.8140256379
 20
42419.7186070116
 11
196992.984425274
 21
42419.7186070116
 72
     1
 10
196992.984425274
 20
42419.7186070116
 11
196992.984425274
 21
54546.71171763528
 72
     1
 10
196992.984425274
 20
54546.71171763528
 11
186196.1575778416
 21
54546.71171763528
 72
     1
 10
186196.1575778416
 20
54546.71171763528
 11
186196.1575778406
 21
93476.59036180981
 72
     2
 10
161707.488942156
 20
-25181.90177575424
 40
121159.12119155
 50
281.6609520622133
 51
293.4724250161588
 73
     0
 72
     1
 10
209966.0956403323
 20
85951.52941153274
 11
209966.0956403329
 21
99223.70245050954
 72
     2
 10
169092.3307322618
 20
11417.28922520742
 40
96853.6569327807
 50
65.03808668413701
 51
79.82853623748811
 73
     1
 72
     1
 10
186196.1575778414
 20
106748.763400787
 11
186196.1575778407
 21
134522.6524809155
 72
     2
 10
149649.8952597929
 20
7420.910997906968
 40
132251.585916514
 50
286.0418218054057
 51
291.9581781945935
 73
     0
 72
     1
 10
199102.6932269282
 20
130078.5758650272
 11
199102.6932269291
 21
145460.8194053911
 72
     2
 10
152033.610092587
 20
51290.32160925423
 40
105278.5887171737
 50
63.44281790000926
 51
78.55718209999064
 73
     1
 72
     1
 10
172919.8140256382
 20
154476.3077098232
 11
172919.8140256379
 21
42419.7186070116
 97
        0
 92
        1
 93
       15
 72
     1
 10
200843.9943688388
 20
42419.7186070116
 11
214718.2128208543
 21
42419.7186070116
 72
     1
 10
214718.2128208543
 20
42419.7186070116
 11
225840.6682517806
 21
68725.18316101737
 72
     1
 10
225840.6682517806
 20
68725.18316101737
 11
232246.5421246085
 21
48633.89078637936
 72
     2
 10
215878.5940257774
 20
72169.27135408337
 40
28667.47047495972
 50
304.8171215495268
 51
337.1828784504726
 73
     1
 72
     2
 10
238905.8055971146
 20
62481.42481598525
 40
3685.339995417663
 50
337.1828784504702
 51
369.7138375590516
 73
     1
 72
     1
 10
242538.3079454534
 20
63103.24277257604
 11
234416.0142442291
 21
86692.09649134927
 72
     2
 10
240052.5154725337
 20
88337.50986077392
 40
5871.757083953601
 50
163.7263636887576
 51
201.7263636887611
 73
     0
 72
     1
 10
234597.8742693718
 20
90511.0830934322
 11
240977.2733653132
 21
106520.3588046445
 72
     2
 10
236381.088340801
 20
108071.7744474019
 40
4850.959418109156
 50
341.3481872592003
 51
383.0214723187967
 73
     1
 72
     2
 10
203805.420895314
 20
91153.86535333568
 40
41545.00353168846
 50
26.92877030208263
 51
46.67979184903328
 73
     1
 72
     1
 10
232308.408978194
 20
121379.136051796
 11
228002.309532135
 21
109548.225057822
 72
     1
 10
228002.309532135
 20
109548.225057822
 11
221642.4787337427
 21
132015.9486933683
 72
     2
 10
168731.8755011547
 20
67203.36186232325
 40
83667.21787037084
 50
50.7730691213507
 51
64.40933290079502
 73
     1
 72
     1
 10
204870.9968443084
 20
142663.0680286801
 11
219652.9064905008
 21
89079.28160512716
 72
     1
 10
219652.9064905008
 20
89079.28160512716
 11
200843.9943688388
 21
42419.7186070116
 97
        0
 92
        1
 93
       11
 72
     1
 10
60760.25147079707
 20
33473.4471139251
 11
225743.0881782895
 21
33473.44711392544
 72
     2
 10
195728.5048987643
 20
89689.63940362025
 40
63727.03888457004
 50
298.0983598942144
 51
325.3528772494833
 73
     1
 72
     2
 10
207631.5266048101
 20
81463.83807677157
 40
49258.25409788611
 50
325.3528772494843
 51
362.6471227505195
 73
     1
 72
     2
 10
186230.686382898
 20
80474.39359199833
 40
70681.95505248924
 50
2.647122750518907
 51
35.35287724949006
 73
     1
 72
     2
 10
169807.2708636503
 20
68823.19701422783
 40
90818.46316615475
 50
35.35287724949011
 51
57.50026675947552
 73
     1
 72
     2
 10
145773.4884706048
 20
31097.32782319365
 40
135549.4803950897
 50
57.50026675947544
 51
91.06601590221627
 73
     1
 72
     2
 10
140729.851178483
 20
31097.32782319106
 40
135549.4803950918
 50
88.93398409778516
 51
122.4997332405255
 73
     1
 72
     2
 10
116696.06878544
 20
68823.19701422378
 40
90818.46316615935
 50
122.4997332405263
 51
144.6471227505104
 73
     1
 72
     2
 10
100272.6532661892
 20
80474.39359199847
 40
70681.95505248945
 50
144.6471227505111
 51
177.3528772494822
 73
     1
 72
     2
 10
78871.81304427679
 20
81463.83807677159
 40
49258.25409788603
 50
177.3528772494818
 51
214.6471227505157
 73
     1
 72
     2
 10
90774.83475031492
 20
89689.63940361074
 40
63727.03888455833
 50
214.6471227505147
 51
241.9016401057878
 73
     1
 97
        0
 92
        1
 93
       11
 72
     2
 10
90774.83475032144
 20
89689.63940361852
 40
76114.49352209958
 50
115.6676497836031
 51
145.3528772494841
 73
     0
 72
     2
 10
78871.81304427716
 20
81463.83807677169
 40
61645.7087354179
 50
145.3528772494848
 51
182.6471227505183
 73
     0
 72
     2
 10
100272.6532661902
 20
80474.39359199792
 40
83069.40969002218
 50
182.6471227505189
 51
215.3528772494895
 73
     0
 72
     2
 10
116696.0687854374
 20
68823.19701422652
 40
103205.9178036874
 50
215.3528772494901
 51
237.500266759475
 73
     0
 72
     2
 10
140729.8511784818
 20
31097.32782319603
 40
147936.9350326188
 50
237.5002667594748
 51
270.9767443388683
 73
     0
 72
     2
 10
145773.488470605
 20
31097.32782319397
 40
147936.9350326207
 50
269.0232556611323
 51
302.4997332405255
 73
     0
 72
     2
 10
169807.2708636478
 20
68823.19701422454
 40
103205.9178036901
 50
302.4997332405259
 51
324.6471227505102
 73
     0
 72
     2
 10
186230.6863828967
 20
80474.39359199808
 40
83069.40969002223
 50
324.6471227505111
 51
357.3528772494815
 73
     0
 72
     2
 10
207631.5266048085
 20
81463.8380767721
 40
61645.70873541929
 50
357.3528772494821
 51
394.6471227505164
 73
     0
 72
     2
 10
195728.5048987675
 20
89689.63940361675
 40
76114.49352209723
 50
34.64712275051661
 51
64.33235021639949
 73
     0
 72
     1
 10
228697.516901105
 20
21085.99247639351
 11
57805.82274798077
 21
21085.99247639414
 97
        0
 75
     0
 76
     1
 98
        1
 10
0.0
 20
0.0
450
        0
451
        0
460
0.0
461
0.0
452
        0
462
0.0
453
        0
470

1001
REVIT
1002
{
1070
     1
1000
785721
1002
}
1002
{
1070
     5
1000
677308
1002
}
  0
ENDBLK
  5
275
330
213
100
AcDbEntity
  8
0
100
AcDbBlockEnd
  0
BLOCK
  5
2A1
330
276
100
AcDbEntity
  8
0
100
AcDbBlockBegin
  2
_ARDEX_ Landscape Title block Weldtec Tanking - WPM 3000X-677308-FOOTING JUNCTION NO STEP 1
 70
     0
 10
0.0
 20
0.0
 30
0.0
  3
_ARDEX_ Landscape Title block Weldtec Tanking - WPM 3000X-677308-FOOTING JUNCTION NO STEP 1
  1

  0
LINE
  5
277
330
276
100
AcDbEntity
  8
_ARDEX - WELDTEC TANKING_
100
AcDbLine
 10
285.227182665069
 20
0.1047184170710639
 30
0.0
 11
285.227182665069
 21
20.10471841707107
 31
0.0
1001
REVIT
1002
{
1070
     1
1000
785721
1002
}
1002
{
1070
     5
1000
677308
1002
}
  0
LINE
  5
278
330
276
100
AcDbEntity
  8
_ARDEX - WELDTEC TANKING_
100
AcDbLine
 10
5.3206767357453
 20
0.1047184170705877
 30
0.0
 11
5.3206767357453
 21
20.1047184170714
 31
0.0
1001
REVIT
1002
{
1070
     1
1000
785721
1002
}
1002
{
1070
     5
1000
677308
1002
}
  0
LINE
  5
279
330
276
100
AcDbEntity
  8
_ARDEX - WELDTEC TANKING_
100
AcDbLine
 10
208.5398289799351
 20
10.10471841707111
 30
0.0
 11
255.7980057156809
 21
10.10471841707111
 31
0.0
1001
REVIT
1002
{
1070
     1
1000
785721
1002
}
1002
{
1070
     5
1000
677308
1002
}
  0
LINE
  5
27A
330
276
100
AcDbEntity
  8
_ARDEX - WELDTEC TANKING_
100
AcDbLine
 10
285.3206767356986
 20
0.104718417071116
 30
0.0
 11
285.3206767356986
 21
20.10471841707112
 31
0.0
1001
REVIT
1002
{
1070
     1
1000
785721
1002
}
1002
{
1070
     5
1000
677308
1002
}
  0
LINE
  5
27B
330
276
100
AcDbEntity
  8
_ARDEX - WELDTEC TANKING_
100
AcDbLine
 10
93.03982897993519
 20
0.1047184170707532
 30
0.0
 11
93.03982897993519
 21
20.10471841707112
 31
0.0
1001
REVIT
1002
{
1070
     1
1000
785721
1002
}
1002
{
1070
     5
1000
677308
1002
}
  0
LINE
  5
27C
330
276
100
AcDbEntity
  8
_ARDEX - WELDTEC TANKING_
100
AcDbLine
 10
285.3206767356986
 20
0.1047184170711139
 30
0.0
 11
5.320676735745351
 21
0.1047184170711139
 31
0.0
1001
REVIT
1002
{
1070
     1
1000
785721
1002
}
1002
{
1070
     5
1000
677308
1002
}
  0
LINE
  5
27D
330
276
100
AcDbEntity
  8
_ARDEX - WELDTEC TANKING_
100
AcDbLine
 10
5.3206767357453
 20
20.10471841707112
 30
0.0
 11
285.3206767356986
 21
20.10471841707112
 31
0.0
1001
REVIT
1002
{
1070
     1
1000
785721
1002
}
1002
{
1070
     5
1000
677308
1002
}
  0
LINE
  5
27E
330
276
100
AcDbEntity
  8
_ARDEX - WELDTEC TANKING_
100
AcDbLine
 10
208.5398289799351
 20
20.10471841707112
 30
0.0
 11
208.5398289799351
 21
0.1047184170711139
 31
0.0
1001
REVIT
1002
{
1070
     1
1000
785721
1002
}
1002
{
1070
     5
1000
677308
1002
}
  0
LINE
  5
27F
330
276
100
AcDbEntity
  8
_ARDEX - WELDTEC TANKING_
100
AcDbLine
 10
255.7980057156809
 20
0.1047184170711139
 30
0.0
 11
255.7980057156809
 21
20.10471841707112
 31
0.0
1001
REVIT
1002
{
1070
     1
1000
785721
1002
}
1002
{
1070
     5
1000
677308
1002
}
  0
ARC
  5
280
330
276
100
AcDbEntity
  8
_ARDEX - WELDTEC TANKING_
100
AcDbCircle
 10
264.7033458719065
 20
8.615450092703635
 30
0.0
 40
3.599904939316393
100
AcDbArc
 50
128.7499156981656
 51
173.2500843018355
1001
REVIT
1002
{
1070
     1
1000
785721
1002
}
1002
{
1070
     5
1000
677308
1002
}
  0
LINE
  5
281
330
276
100
AcDbEntity
  8
_ARDEX - WELDTEC TANKING_
100
AcDbLine
 10
261.1283932060786
 20
9.038568290379673
 30
0.0
 11
262.4500850035741
 21
9.771194016962288
 31
0.0
1001
REVIT
1002
{
1070
     1
1000
785721
1002
}
1002
{
1070
     5
1000
677308
1002
}
  0
LINE
  5
282
330
276
100
AcDbEntity
  8
_ARDEX - WELDTEC TANKING_
100
AcDbLine
 10
262.4500850035741
 20
9.771194016962288
 30
0.0
 11
262.4500850035741
 21
11.42296341081208
 31
0.0
1001
REVIT
1002
{
1070
     1
1000
785721
1002
}
1002
{
1070
     5
1000
677308
1002
}
  0
LINE
  5
283
330
276
100
AcDbEntity
  8
_ARDEX - WELDTEC TANKING_
100
AcDbLine
 10
266.0421584464195
 20
10.80796424829054
 30
0.0
 11
266.88851038299
 21
11.09938659061298
 31
0.0
1001
REVIT
1002
{
1070
     1
1000
785721
1002
}
1002
{
1070
     5
1000
677308
1002
}
  0
LINE
  5
284
330
276
100
AcDbEntity
  8
_ARDEX - WELDTEC TANKING_
100
AcDbLine
 10
266.88851038299
 20
11.09938659061298
 30
0.0
 11
266.88851038299
 21
13.91234101803232
 31
0.0
1001
REVIT
1002
{
1070
     1
1000
785721
1002
}
1002
{
1070
     5
1000
677308
1002
}
  0
LINE
  5
285
330
276
100
AcDbEntity
  8
_ARDEX - WELDTEC TANKING_
100
AcDbLine
 10
266.88851038299
 20
13.91234101803232
 30
0.0
 11
266.0421584464195
 21
13.51768062851515
 31
0.0
1001
REVIT
1002
{
1070
     1
1000
785721
1002
}
1002
{
1070
     5
1000
677308
1002
}
  0
LINE
  5
286
330
276
100
AcDbEntity
  8
_ARDEX - WELDTEC TANKING_
100
AcDbLine
 10
266.0421584464195
 20
13.51768062851515
 30
0.0
 11
266.0421584464195
 21
10.80796424829054
 31
0.0
1001
REVIT
1002
{
1070
     1
1000
785721
1002
}
1002
{
1070
     5
1000
677308
1002
}
  0
LINE
  5
287
330
276
100
AcDbEntity
  8
_ARDEX - WELDTEC TANKING_
100
AcDbLine
 10
270.4096710750699
 20
5.590266819067662
 30
0.0
 11
271.2473149067903
 21
5.590266819067662
 31
0.0
1001
REVIT
1002
{
1070
     1
1000
785721
1002
}
1002
{
1070
     5
1000
677308
1002
}
  0
LINE
  5
288
330
276
100
AcDbEntity
  8
_ARDEX - WELDTEC TANKING_
100
AcDbLine
 10
271.2473149067903
 20
5.590266819067662
 30
0.0
 11
271.2473149067903
 21
14.54487385665576
 31
0.0
1001
REVIT
1002
{
1070
     1
1000
785721
1002
}
1002
{
1070
     5
1000
677308
1002
}
  0
LINE
  5
289
330
276
100
AcDbEntity
  8
_ARDEX - WELDTEC TANKING_
100
AcDbLine
 10
271.2473149067903
 20
14.54487385665576
 30
0.0
 11
270.4096710750699
 21
14.54487385665576
 31
0.0
1001
REVIT
1002
{
1070
     1
1000
785721
1002
}
1002
{
1070
     5
1000
677308
1002
}
  0
LINE
  5
28A
330
276
100
AcDbEntity
  8
_ARDEX - WELDTEC TANKING_
100
AcDbLine
 10
270.4096710750699
 20
14.54487385665576
 30
0.0
 11
270.4096710750699
 21
5.590266819067662
 31
0.0
1001
REVIT
1002
{
1070
     1
1000
785721
1002
}
1002
{
1070
     5
1000
677308
1002
}
  0
MTEXT
  5
28C
330
276
100
AcDbEntity
  8
_ARDEX - WELDTEC TANKING_
100
AcDbMText
 10
210.3053465833535
 20
13.82166287222625
 30
0.0
 40
1.5
 41
9.95695875
 46
0.0
 71
     1
 72
     1
  1
DWG NO.
  7
Swis721 Lt BT_1
 73
     2
 44
1.0
1001
REVIT
1002
{
1070
     1
1000
785721
1002
}
1002
{
1070
     5
1000
677308
1002
}
  0
MTEXT
  5
28D
330
276
100
AcDbEntity
  8
_ARDEX - WELDTEC TANKING_
100
AcDbMText
 10
210.3053465833535
 20
3.821662872225974
 30
0.0
 40
1.5
 41
6.998731874999998
 46
0.0
 71
     1
 72
     1
  1
SCALE
  7
Swis721 Lt BT_1
 73
     2
 44
1.0
1001
REVIT
1002
{
1070
     1
1000
785721
1002
}
1002
{
1070
     5
1000
677308
1002
}
  0
MTEXT
  5
28F
330
276
100
AcDbEntity
  8
_ARDEX - WELDTEC TANKING_
100
AcDbMText
 10
227.0439951580743
 20
4.127661816395806
 30
0.0
 40
2.1
 41
8.730376874999999
 46
0.0
 71
     1
 72
     1
  1
@  A4
  7
Swis721 Lt BT_2
 73
     2
 44
1.0
1001
REVIT
1002
{
1070
     1
1000
785721
1002
}
1002
{
1070
     5
1000
677308
1002
}
  0
MTEXT
  5
290
330
276
100
AcDbEntity
  8
_ARDEX - WELDTEC TANKING_
100
AcDbMText
 10
210.3053465833535
 20
7.734351438880739
 30
0.0
 40
1.5
 41
5.62784625
 46
0.0
 71
     1
 72
     1
  1
DATE
  7
Swis721 Lt BT_1
 73
     2
 44
1.0
1001
REVIT
1002
{
1070
     1
1000
785721
1002
}
1002
{
1070
     5
1000
677308
1002
}
  0
MTEXT
  5
292
330
276
100
AcDbEntity
  8
_ARDEX - WELDTEC TANKING_
100
AcDbMText
 10
6.949872989435805
 20
8.938253401590928
 30
0.0
 40
0.7000000000000001
 41
6.6379725
 46
0.0
 71
     1
 72
     1
  1
Disclaimer: 
  7
Swis721 Lt BT_B
 73
     2
 44
1.0
1001
REVIT
1002
{
1070
     1
1000
785721
1002
}
1002
{
1070
     5
1000
677308
1002
}
  0
MTEXT
  5
294
330
276
100
AcDbEntity
  8
_ARDEX - WELDTEC TANKING_
100
AcDbMText
 10
12.4267479894358
 20
8.938253401590928
 30
0.0
 40
0.7000000000000001
 41
17.821513125
 46
0.0
 71
     1
 72
     1
  1
Ardex makes every reasonable effort
  7
Swis721 Lt BT_3
 73
     2
 44
1.0
1001
REVIT
1002
{
1070
     1
1000
785721
1002
}
1002
{
1070
     5
1000
677308
1002
}
  0
MTEXT
  5
295
330
276
100
AcDbEntity
  8
_ARDEX - WELDTEC TANKING_
100
AcDbMText
 10
27.13096673943581
 20
8.938253401590928
 30
0.0
 40
0.7000000000000001
 41
0.3607593750000011
 46
0.0
 71
     1
 72
     1
  1
\fSwis721 Lt BT|b1|i0|c0|p34|;\W.9; 
  7
Swis721 Lt BT_B
 73
     2
 44
1.0
1001
REVIT
1002
{
1070
     1
1000
785721
1002
}
1002
{
1070
     5
1000
677308
1002
}
  0
MTEXT
  5
296
330
276
100
AcDbEntity
  8
_ARDEX - WELDTEC TANKING_
100
AcDbMText
 10
27.42862298943581
 20
8.938253401590928
 30
0.0
 40
0.7000000000000001
 41
13.27594499999999
 46
0.0
 71
     1
 72
     1
  1
to ensure that the technical
  7
Swis721 Lt BT_3
 73
     2
 44
1.0
1001
REVIT
1002
{
1070
     1
1000
785721
1002
}
1002
{
1070
     5
1000
677308
1002
}
  0
MTEXT
  5
297
330
276
100
AcDbEntity
  8
_ARDEX - WELDTEC TANKING_
100
AcDbMText
 10
38.3823729894358
 20
8.938253401590928
 30
0.0
 40
0.7000000000000001
 41
0.3607593750000057
 46
0.0
 71
     1
 72
     1
  1
\fSwis721 Lt BT|b1|i0|c0|p34|;\W.9; 
  7
Swis721 Lt BT_B
 73
     2
 44
1.0
1001
REVIT
1002
{
1070
     1
1000
785721
1002
}
1002
{
1070
     5
1000
677308
1002
}
  0
MTEXT
  5
298
330
276
100
AcDbEntity
  8
_ARDEX - WELDTEC TANKING_
100
AcDbMText
 10
38.6800292394358
 20
8.938253401590928
 30
0.0
 40
0.7000000000000001
 41
59.95820812499999
 46
0.0
 71
     1
 72
     1
  1
details, recommendations and other information contained in this drawing are accurate and represent our knowledge and 
  7
Swis721 Lt BT_3
 73
     2
 44
1.0
1001
REVIT
1002
{
1070
     1
1000
785721
1002
}
1002
{
1070
     5
1000
677308
1002
}
  0
MTEXT
  5
299
330
276
100
AcDbEntity
  8
_ARDEX - WELDTEC TANKING_
100
AcDbMText
 10
6.949872989435805
 20
7.681482568257595
 30
0.0
 40
0.7000000000000001
 41
98.920220625
 46
0.0
 71
     1
 72
     1
  1
experience at the time of design and publication. Ardex reserves the right to change the information without prior notice.  Ardex provides the information in good faith with no representations or warranties 
  7
Swis721 Lt BT_3
 73
     2
 44
1.0
1001
REVIT
1002
{
1070
     1
1000
785721
1002
}
1002
{
1070
     5
1000
677308
1002
}
  0
MTEXT
  5
29A
330
276
100
AcDbEntity
  8
_ARDEX - WELDTEC TANKING_
100
AcDbMText
 10
6.949872989435805
 20
6.424711734924262
 30
0.0
 40
0.7000000000000001
 41
100.1468025
 46
0.0
 71
     1
 72
     1
  1
(whether implied or otherwise), and will not be liable for any losses or damages (whether direct, indirect or consequential) whatsoever, whether in contract, negligence  or any other action, arising out of or in 
  7
Swis721 Lt BT_3
 73
     2
 44
1.0
1001
REVIT
1002
{
1070
     1
1000
785721
1002
}
1002
{
1070
     5
1000
677308
1002
}
  0
MTEXT
  5
29B
330
276
100
AcDbEntity
  8
_ARDEX - WELDTEC TANKING_
100
AcDbMText
 10
6.949872989435805
 20
5.167940901590927
 30
0.0
 40
0.7000000000000001
 41
29.221509375
 46
0.0
 71
     1
 72
     1
  1
connection with the use, or inability to use, the information.  
  7
Swis721 Lt BT_3
 73
     2
 44
1.0
1001
REVIT
1002
{
1070
     1
1000
785721
1002
}
1002
{
1070
     5
1000
677308
1002
}
  0
MTEXT
  5
29C
330
276
100
AcDbEntity
  8
_ARDEX - WELDTEC TANKING_
100
AcDbMText
 10
6.949872989435805
 20
3.911170068257595
 30
0.0
 40
0.7000000000000001
 41
100.1468025
 46
0.0
 71
     1
 72
     1
  1
It is your responsibility to ensure that our products are used only for the purposes for which they are intended and are used in accordance with any applicable specifications, guidelines, standards, codes of 
  7
Swis721 Lt BT_3
 73
     2
 44
1.0
1001
REVIT
1002
{
1070
     1
1000
785721
1002
}
1002
{
1070
     5
1000
677308
1002
}
  0
MTEXT
  5
29D
330
276
100
AcDbEntity
  8
_ARDEX - WELDTEC TANKING_
100
AcDbMText
 10
6.949872989435805
 20
2.654399234924261
 30
0.0
 40
0.7000000000000001
 41
79.94427750000001
 46
0.0
 71
     1
 72
     1
  1
practice, regulations and laws. The supply of our products and services are also subject to certain terms, warranties and exclusions which are available on request.
  7
Swis721 Lt BT_3
 73
     2
 44
1.0
1001
REVIT
1002
{
1070
     1
1000
785721
1002
}
1002
{
1070
     5
1000
677308
1002
}
  0
MTEXT
  5
29F
330
276
100
AcDbEntity
  8
_ARDEX - WELDTEC TANKING_
 62
   133
420
  7589074
100
AcDbMText
 10
28.19746716553648
 20
16.95786991695462
 30
0.0
 40
5.0
 41
49.64048999999999
 46
0.0
 71
     1
 72
     1
  1
WPM 3000X
  7
Arial Black
 73
     2
 44
1.0
1001
REVIT
1002
{
1070
     1
1000
785721
1002
}
1002
{
1070
     5
1000
677308
1002
}
  0
INSERT
  5
2A0
330
276
100
AcDbEntity
  8
0
100
AcDbBlockReference
  2
_ARDEX_ Landscape Title block Weldtec Tanking - ARDEX Logo_dwg-792302-FOOTING JUNCTION NO STEP 1
 10
255.9526227660936
 20
-0.0315620231414546
 30
0.0
 41
0.0001013127763658
 42
0.0001013127763658
 43
0.0001013127763658
  0
ENDBLK
  5
2A2
330
276
100
AcDbEntity
  8
0
100
AcDbBlockEnd
  0
ENDSEC
  0
SECTION
  2
ENTITIES
  0
HATCH
  5
D8
330
70
100
AcDbEntity
  8
_ARDEX - WELDTEC TANKING_
 62
     8
420
  8421504
100
AcDbHatch
 10
0.0
 20
0.0
 30
0.0
210
0.0
220
0.0
230
1.0
  2
SOLID
 70
     1
 71
     0
 91
        1
 92
        1
 93
       27
 72
     1
 10
3794.741690708776
 20
1936.269257459966
 11
3794.741690708784
 21
2117.118149606345
 72
     1
 10
3794.741690708784
 20
2117.118149606345
 11
3774.741690708779
 21
2111.749067632185
 72
     1
 10
3774.741690708779
 20
2111.749067632185
 11
3774.741690708779
 21
2110.874937750932
 72
     1
 10
3774.741690708779
 20
2110.874937750932
 11
3726.588476712031
 21
2098.822139968798
 72
     1
 10
3726.588476712031
 20
2098.822139968798
 11
3686.637252182329
 21
2088.0970699954
 72
     1
 10
3686.637252182329
 20
2088.0970699954
 11
3678.178061400096
 21
2086.704964439389
 72
     1
 10
3678.178061400096
 20
2086.704964439389
 11
3669.542786305783
 21
2084.543546418322
 72
     1
 10
3669.542786305783
 20
2084.543546418322
 11
3617.630133516656
 21
2076.740759944966
 72
     1
 10
3617.630133516656
 20
2076.740759944966
 11
3576.190748079302
 21
2069.921195261994
 72
     1
 10
3576.190748079302
 20
2069.921195261994
 11
3569.341151382606
 21
2069.482633142271
 72
     1
 10
3569.341151382606
 20
2069.482633142271
 11
3562.303161879429
 21
2068.424780646887
 72
     1
 10
3562.303161879429
 20
2068.424780646887
 11
3506.393309391994
 21
2065.452244166428
 72
     1
 10
3506.393309391994
 20
2065.452244166428
 11
3464.487388927204
 21
2062.769115491594
 72
     1
 10
3464.487388927204
 20
2062.769115491594
 11
3459.339176696423
 21
2062.95053615306
 72
     1
 10
3459.339176696423
 20
2062.95053615306
 11
3454.011873716215
 21
2062.667301593379
 72
     1
 10
3454.011873716215
 20
2062.667301593379
 11
3393.186996531925
 21
2065.281708945656
 72
     1
 10
3393.186996531925
 20
2065.281708945656
 11
3352.624734692231
 21
2066.711104635588
 72
     1
 10
3352.624734692231
 20
2066.711104635588
 11
3349.219133313566
 21
2067.171559121821
 72
     1
 10
3349.219133313566
 20
2067.171559121821
 11
3345.667677452454
 21
2067.324209694159
 72
     1
 10
3345.667677452454
 20
2067.324209694159
 11
3276.371938443541
 21
2077.020867351925
 72
     1
 10
3276.371938443541
 20
2077.020867351925
 11
3241.701910520949
 21
2081.708430022871
 72
     1
 10
3241.701910520949
 20
2081.708430022871
 11
3240.029204803162
 21
2082.106361084992
 72
     1
 10
3240.029204803162
 20
2082.106361084992
 11
3238.269816688578
 21
2082.352554927185
 72
     1
 10
3238.269816688578
 20
2082.352554927185
 11
3132.808807103051
 21
2107.613732934152
 72
     1
 10
3132.808807103051
 20
2107.613732934152
 11
3132.808807103051
 21
1936.269257459968
 72
     1
 10
3132.808807103051
 20
1936.269257459968
 11
3578.608891512311
 21
1936.269257459967
 72
     1
 10
3578.608891512311
 20
1936.269257459967
 11
3794.741690708776
 21
1936.269257459966
 97
        0
 75
     0
 76
     1
 98
        1
 10
0.0
 20
0.0
450
        0
451
        0
460
0.0
461
0.0
452
        0
462
0.0
453
        0
470

1001
REVIT
1002
{
1070
     1
1000
771086
1002
}
1002
{
1070
     5
1000
777083
1002
}
1002
{
1070
     2
1000
-2002000
1002
}
  0
HATCH
  5
E2
330
70
100
AcDbEntity
  8
_ARDEX - WELDTEC TANKING_
 62
     8
420
  8421504
100
AcDbHatch
 10
0.0
 20
0.0
 30
0.0
210
0.0
220
0.0
230
1.0
  2
FP_1
 70
     0
 71
     0
 91
        1
 92
        1
 93
        9
 72
     1
 10
5020.800425918043
 20
1648.269257459966
 11
5020.800425918044
 21
2128.269257459966
 72
     1
 10
5020.800425918044
 20
2128.269257459966
 11
4746.867869196677
 21
2128.269257459967
 72
     1
 10
4746.867869196677
 20
2128.269257459967
 11
4537.992869196674
 21
1919.394257459964
 72
     1
 10
4537.992869196674
 20
1919.394257459964
 11
4502.637530137348
 21
1919.394257459964
 72
     1
 10
4502.637530137348
 20
1919.394257459964
 11
4492.637530137347
 21
1909.394257459965
 72
     1
 10
4492.637530137347
 20
1909.394257459965
 11
3140.800425918042
 21
1909.394257459968
 72
     1
 10
3140.800425918042
 20
1909.394257459968
 11
3140.800425918041
 21
1648.269257459971
 72
     1
 10
3140.800425918041
 20
1648.269257459971
 11
3986.983891512247
 21
1648.269257459969
 72
     1
 10
3986.983891512247
 20
1648.269257459969
 11
5020.800425918043
 21
1648.269257459966
 97
        0
 75
     0
 76
     2
 52
0.0
 41
1.0
 77
     0
 78
   334
 53
0.0
 43
583.5469999999999
 44
-216.226
 45
0.0
 46
297.18
 79
     2
 49
16.764
 49
-280.416
 53
0.0
 43
506.28
 44
-94.382
 45
0.0
 46
297.18
 79
     2
 49
16.764
 49
-280.416
 53
180.0
 43
610.293
 44
-82.49500000000001
 45
-0.0000000000000364
 46
-297.18
 79
     2
 49
16.764
 49
-280.416
 53
0.0
 43
553.829
 44
-58.71999999999999
 45
0.0
 46
297.18
 79
     2
 49
16.764
 49
-280.416
 53
0.0
 43
550.8569999999999
 44
-55.748
 45
0.0
 46
297.18
 79
     2
 49
16.764
 49
-280.416
 53
0.0
 43
345.8030000000001
 44
-8.199999999999999
 45
0.0
 46
297.18
 79
     2
 49
16.764
 49
-280.416
 53
0.0
 43
390.38
 44
51.236
 45
0.0
 46
297.18
 79
     2
 49
16.764
 49
-280.416
 53
0.0
 43
399.295
 44
6.658999999999999
 45
0.0
 46
297.18
 79
     2
 49
16.764
 49
-280.416
 53
0.0
 43
396.323
 44
9.631
 45
0.0
 46
297.18
 79
     2
 49
16.764
 49
-280.416
 53
0.0
 43
333.915
 44
72.039
 45
0.0
 46
297.18
 79
     2
 49
16.764
 49
-280.416
 53
0.0
 43
521.139
 44
36.377
 45
0.0
 46
297.18
 79
     2
 49
16.764
 49
-280.416
 53
0.0
 43
515.195
 44
33.406
 45
0.0
 46
297.18
 79
     2
 49
16.764
 49
-280.416
 53
0.0
 43
541.941
 44
69.06699999999999
 45
0.0
 46
297.18
 79
     2
 49
16.764
 49
-280.416
 53
0.0
 43
586.518
 44
27.462
 45
0.0
 46
297.18
 79
     2
 49
16.764
 49
-280.416
 53
0.0
 43
601.377
 44
-14.143
 45
0.0
 46
297.18
 79
     2
 49
16.764
 49
-280.416
 53
0.0
 43
446.844
 44
-82.49500000000001
 45
0.0
 46
297.18
 79
     2
 49
16.764
 49
-280.416
 53
0.0
 43
414.1539999999999
 44
-112.213
 45
0.0
 46
297.18
 79
     2
 49
16.764
 49
-280.416
 53
0.0
 43
426.041
 44
-189.479
 45
0.0
 46
297.18
 79
     2
 49
16.764
 49
-280.416
 53
0.0
 43
429.013
 44
-192.451
 45
0.0
 46
297.18
 79
     2
 49
16.764
 49
-280.416
 53
0.0
 43
384.436
 44
-165.705
 45
0.0
 46
297.18
 79
     2
 49
16.764
 49
-280.416
 53
0.0
 43
372.5490000000001
 44
-174.62
 45
0.0
 46
297.18
 79
     2
 49
16.764
 49
-280.416
 53
0.0
 43
381.464
 44
-141.931
 45
0.0
 46
297.18
 79
     2
 49
16.764
 49
-280.416
 53
0.0
 43
473.5899999999999
 44
18.547
 45
0.0
 46
297.18
 79
     2
 49
16.764
 49
-280.416
 53
0.0
 43
440.8999999999999
 44
45.293
 45
0.0
 46
297.18
 79
     2
 49
16.764
 49
-280.416
 53
0.0
 43
449.8159999999999
 44
48.265
 45
0.0
 46
297.18
 79
     2
 49
16.764
 49
-280.416
 53
0.0
 43
494.393
 44
-165.705
 45
0.0
 46
297.18
 79
     2
 49
16.764
 49
-280.416
 53
0.0
 43
485.477
 44
-162.733
 45
0.0
 46
297.18
 79
     2
 49
17.831
 49
-279.349
 53
0.0
 43
515.195
 44
-201.367
 45
0.0
 46
297.18
 79
     2
 49
16.764
 49
-280.416
 53
0.0
 43
512.223
 44
-204.338
 45
0.0
 46
297.18
 79
     2
 49
16.764
 49
-280.416
 53
0.0
 43
491.4209999999999
 44
-49.805
 45
0.0
 46
297.18
 79
     2
 49
16.764
 49
-280.416
 53
0.0
 43
524.1109999999999
 44
-2.255999999999999
 45
0.0
 46
297.18
 79
     2
 49
16.764
 49
-280.416
 53
0.0
 43
535.998
 44
0.7158
 45
0.0
 46
297.18
 79
     2
 49
16.764
 49
-280.416
 53
0.0
 43
381.464
 44
-43.861
 45
0.0
 46
297.18
 79
     2
 49
16.764
 49
-280.416
 53
0.0
 43
414.1539999999999
 44
-29.002
 45
0.0
 46
297.18
 79
     2
 49
16.764
 49
-280.416
 53
0.0
 43
408.2099999999999
 44
-26.03
 45
0.0
 46
297.18
 79
     2
 49
16.764
 49
-280.416
 53
0.0
 43
333.915
 44
-49.805
 45
0.0
 46
297.18
 79
     2
 49
16.764
 49
-280.416
 53
0.0
 43
330.944
 44
-46.833
 45
0.0
 46
297.18
 79
     2
 49
16.764
 49
-280.416
 53
0.0
 43
607.321
 44
-138.959
 45
0.0
 46
297.18
 79
     2
 49
16.764
 49
-280.416
 53
0.0
 43
580.575
 44
-121.128
 45
0.0
 46
297.18
 79
     2
 49
16.764
 49
-280.416
 53
345.964
 43
586.518
 44
-118.156
 45
297.1801140314303
 46
0.0015053481178597
 79
     2
 49
16.764
 49
-1208.541
 53
0.0
 43
577.603
 44
-118.156
 45
0.0
 46
297.18
 79
     2
 49
16.764
 49
-280.416
 53
315.0
 43
455.759
 44
-177.592
 45
297.1800095699574
 46
0.0
 79
     2
 49
16.811
 49
-403.465
 53
319.399
 43
434.9569999999999
 44
-159.761
 45
1783.08771382628
 46
-1485.890493217373
 79
     2
 49
27.399
 49
-2712.466
 53
319.399
 43
414.1539999999999
 44
-141.931
 45
1783.08771382628
 46
-1485.890493217373
 79
     2
 49
27.399
 49
-2712.466
 53
321.34
 43
399.295
 44
-130.043
 45
1188.717196980219
 46
-891.5437622307107
 79
     2
 49
19.029
 49
-1883.852
 53
333.435
 43
381.464
 44
-121.128
 45
297.180142413536
 46
0.0002654438329301
 79
     2
 49
19.935
 49
-644.579
 53
0.0
 43
372.5490000000001
 44
-121.128
 45
0.0
 46
297.18
 79
     2
 49
16.764
 49
-280.416
 53
57.99499999999999
 43
357.69
 44
-144.902
 45
891.5301108414935
 46
1485.906009005938
 79
     2
 49
28.036
 49
-2775.555
 53
66.03799999999999
 43
345.8030000000001
 44
-171.649
 45
891.5221770692248
 46
2080.267310944858
 79
     2
 49
29.269
 49
-2897.615
 53
90.0
 43
345.8030000000001
 44
-183.5359999999999
 45
-297.18
 46
0.0000000000000182
 79
     2
 49
16.764
 49
-280.416
 53
135.0
 43
351.746
 44
-189.479
 45
-297.1800095699574
 46
0.0000000000000284
 79
     2
 49
16.764
 49
-403.5119999999999
 53
164.055
 43
372.5490000000001
 44
-195.423
 45
-1188.721747434084
 46
297.1715036712918
 79
     2
 49
21.635
 49
-2141.868
 53
165.964
 43
396.323
 44
-201.367
 45
-297.1801140314303
 46
-0.0015053481179308
 79
     2
 49
24.506
 49
-1200.798
 53
168.69
 43
426.041
 44
-207.31
 45
-297.1800747105638
 46
0.0001541256434621
 79
     2
 49
30.307
 49
-1485.02
 53
167.4709999999999
 43
452.787
 44
-213.254
 45
-1485.89931618719
 46
297.1847458508615
 79
     2
 49
27.399
 49
-2712.466
 53
173.66
 43
479.534
 44
-216.226
 45
-297.1796294617296
 46
-0.0009945405917122
 79
     2
 49
26.911
 49
-2664.169
 53
180.0
 43
482.505
 44
-216.226
 45
-0.0000000000000364
 46
-297.18
 79
     2
 49
16.764
 49
-280.416
 53
225.0
 43
488.449
 44
-210.282
 45
0.0000000000000284
 46
-297.1800095699574
 79
     2
 49
16.764
 49
-403.5119999999999
 53
270.0
 43
488.449
 44
-204.338
 45
297.18
 46
0.0000000000000182
 79
     2
 49
16.764
 49
-280.416
 53
326.31
 43
479.534
 44
-198.395
 45
594.360223745882
 46
-297.179097593934
 79
     2
 49
16.76399999999999
 49
-1054.733999999999
 53
323.13
 43
467.6459999999999
 44
-189.479
 45
891.5389382237545
 46
-594.3615926612859
 79
     2
 49
16.764
 49
-1469.136
 53
324.462
 43
375.5209999999999
 44
-109.241
 45
891.5366495729944
 46
-594.3655895702236
 79
     2
 49
25.564
 49
-2530.875
 53
281.31
 43
372.5490000000001
 44
-94.382
 45
297.1816717935818
 46
-1188.71994859932
 79
     2
 49
16.76399999999999
 49
-1498.563
 53
288.435
 43
369.577
 44
-85.46600000000001
 45
297.1809498735398
 46
-594.3596238450764
 79
     2
 49
16.764
 49
-923.0019999999999
 53
255.964
 43
372.5490000000001
 44
-73.57899999999999
 45
0.0015053481178597
 46
-297.1801140314303
 79
     2
 49
16.764
 49
-1208.541
 53
185.711
 43
402.2669999999999
 44
-70.607
 45
-2674.617955920187
 46
-297.1994865394684
 79
     2
 49
29.866
 49
-2956.756
 53
180.0
 43
440.8999999999999
 44
-70.607
 45
-0.0000000000000364
 46
-297.18
 79
     2
 49
38.633
 49
-258.547
 53
180.0
 43
449.8159999999999
 44
-70.607
 45
-0.0000000000000364
 46
-297.18
 79
     2
 49
16.764
 49
-280.416
 53
161.565
 43
458.731
 44
-73.57899999999999
 45
-297.1804189865097
 46
-0.0000507836860066
 79
     2
 49
16.764
 49
-923.0019999999999
 53
116.565
 43
461.703
 44
-79.523
 45
-297.1798769697031
 46
297.1804078573689
 79
     2
 49
16.764
 49
-647.7509999999999
 53
90.0
 43
461.703
 44
-94.382
 45
-297.18
 46
0.0000000000000182
 79
     2
 49
16.764
 49
-280.416
 53
68.199
 43
455.759
 44
-109.241
 45
297.1735767493037
 46
891.542155056633
 79
     2
 49
16.764
 49
-1583.599
 53
59.036
 43
446.844
 44
-124.1
 45
297.1823053971207
 46
594.3584682360069
 79
     2
 49
17.328
 49
-1715.514
 53
63.43499999999999
 43
437.928
 44
-141.931
 45
-0.0002654438329159
 46
297.180142413536
 79
     2
 49
19.935
 49
-644.579
 53
26.565
 43
431.985
 44
-144.902
 45
297.1804078573689
 46
297.1798769697031
 79
     2
 49
16.764
 49
-647.7509999999999
 53
0.0
 43
426.041
 44
-144.902
 45
0.0
 46
297.18
 79
     2
 49
16.764
 49
-280.416
 53
333.435
 43
420.098
 44
-141.931
 45
297.180142413536
 46
0.0002654438329301
 79
     2
 49
16.764
 49
-647.7509999999999
 53
321.34
 43
405.239
 44
-130.043
 45
1188.717196980219
 46
-891.5437622307107
 79
     2
 49
19.029
 49
-1883.852
 53
326.31
 43
396.323
 44
-124.1
 45
594.360223745882
 46
-297.179097593934
 79
     2
 49
16.76399999999999
 49
-1054.733999999999
 53
206.565
 43
449.8159999999999
 44
-64.664
 45
-297.1804078573689
 46
-297.1798769697031
 79
     2
 49
16.764
 49
-647.7509999999999
 53
243.435
 43
452.787
 44
-58.71999999999999
 45
0.0002654438329444
 46
-297.180142413536
 79
     2
 49
16.764
 49
-647.7509999999999
 53
278.746
 43
446.844
 44
-20.087
 45
297.1747509083575
 46
-1783.08070973093
 79
     2
 49
39.088
 49
-3869.705
 53
288.435
 43
443.8719999999999
 44
-11.171
 45
297.1809498735398
 46
-594.3596238450764
 79
     2
 49
16.764
 49
-923.0019999999999
 53
315.0
 43
437.928
 44
-5.227999999999999
 45
297.1800095699574
 46
0.0
 79
     2
 49
16.764
 49
-403.5119999999999
 53
0.0
 43
426.041
 44
-5.227999999999999
 45
0.0
 46
297.18
 79
     2
 49
16.764
 49
-280.416
 53
14.036
 43
414.1539999999999
 44
-8.199999999999999
 45
891.5416049109062
 46
297.1765681306075
 79
     2
 49
16.764
 49
-1208.541
 53
10.008
 43
363.633
 44
-17.115
 45
3268.980008841869
 46
594.3610130705268
 79
     2
 49
51.301
 49
-5078.821
 53
21.801
 43
348.774
 44
-23.059
 45
594.3618351825051
 46
297.1757006628982
 79
     2
 49
16.76399999999999
 49
-1583.598999999999
 53
45.0
 43
345.8030000000001
 44
-26.03
 45
0.0
 46
297.1800095699574
 79
     2
 49
16.764
 49
-403.5119999999999
 53
107.103
 43
357.69
 44
-64.664
 45
-297.1842168981473
 46
891.5389605461081
 79
     2
 49
40.42099999999999
 49
-4001.663999999999
 53
116.565
 43
360.662
 44
-70.607
 45
-297.1798769697031
 46
297.1804078573689
 79
     2
 49
16.764
 49
-647.7509999999999
 53
180.0
 43
366.605
 44
-70.607
 45
-0.0000000000000364
 46
-297.18
 79
     2
 49
16.764
 49
-280.416
 53
189.462
 43
384.436
 44
-67.63600000000001
 45
-1485.901861277934
 46
-297.1715832776912
 79
     2
 49
18.077
 49
-1789.599
 53
194.036
 43
396.323
 44
-64.664
 45
-891.5416049109063
 46
-297.1765681306073
 79
     2
 49
16.764
 49
-1208.541
 53
180.0
 43
414.1539999999999
 44
-64.664
 45
-0.0000000000000364
 46
-297.18
 79
     2
 49
17.831
 49
-279.349
 53
174.289
 43
443.8719999999999
 44
-67.63600000000001
 45
-297.179896802255
 46
0.0016127826678414
 79
     2
 49
29.866
 49
-2956.756
 53
225.0
 43
455.759
 44
-23.059
 45
0.0000000000000284
 46
-297.1800095699574
 79
     2
 49
16.764
 49
-403.5119999999999
 53
201.801
 43
470.618
 44
-17.115
 45
-594.3618351825051
 46
-297.1757006628983
 79
     2
 49
16.764
 49
-1583.599
 53
206.565
 43
494.393
 44
-5.227999999999999
 45
-297.1804078573689
 46
-297.1798769697031
 79
     2
 49
26.581
 49
-637.934
 53
212.471
 43
527.0819999999999
 44
15.575
 45
-891.5415786789262
 46
-594.3571395724025
 79
     2
 49
38.748
 49
-3836.006
 53
220.601
 43
547.885
 44
33.406
 45
-297.1812872627457
 46
-297.178664612481
 79
     2
 49
27.399
 49
-2712.466
 53
206.565
 43
559.7719999999999
 44
39.34900000000001
 45
-297.1804078573689
 46
-297.1798769697031
 79
     2
 49
16.764
 49
-647.7509999999999
 53
161.565
 43
568.688
 44
36.377
 45
-297.1804189865097
 46
-0.0000507836860066
 79
     2
 49
16.764
 49
-923.0019999999999
 53
98.13
 43
571.659
 44
15.575
 45
-297.1772485087279
 46
1783.080729726442
 79
     2
 49
21.014
 49
-2080.366
 53
90.0
 43
571.659
 44
-2.255999999999999
 45
-297.18
 46
0.0000000000000182
 79
     2
 49
17.831
 49
-279.349
 53
59.036
 43
562.7439999999999
 44
-17.115
 45
297.1823053971207
 46
594.3584682360069
 79
     2
 49
17.328
 49
-1715.514
 53
41.186
 43
538.97
 44
-37.918
 45
297.1797310762759
 46
297.1800370119641
 79
     2
 49
31.591
 49
-3127.476
 53
41.63399999999998
 43
512.223
 44
-61.692
 45
297.1781025213319
 46
297.1822168700892
 79
     2
 49
35.785
 49
-3542.736
 53
41.63399999999998
 43
485.477
 44
-85.46600000000001
 45
297.1781025213319
 46
297.1822168700892
 79
     2
 49
35.785
 49
-3542.736
 53
18.435
 43
476.5619999999999
 44
-88.43799999999999
 45
594.3596238450764
 46
297.1809498735398
 79
     2
 49
16.764
 49
-923.0019999999999
 53
333.435
 43
464.6749999999999
 44
-82.49500000000001
 45
297.180142413536
 46
0.0002654438329301
 79
     2
 49
16.764
 49
-647.7509999999999
 53
291.801
 43
458.731
 44
-67.63600000000001
 45
297.1757006628982
 46
-594.3618351825051
 79
     2
 49
16.764
 49
-1583.599
 53
281.31
 43
455.759
 44
-52.777
 45
297.1816717935818
 46
-1188.71994859932
 79
     2
 49
16.76399999999999
 49
-1498.563
 53
284.036
 43
452.787
 44
-40.889
 45
297.1765681306076
 46
-891.5416049109062
 79
     2
 49
16.764
 49
-1208.541
 53
284.036
 43
449.8159999999999
 44
-29.002
 45
297.1765681306076
 46
-891.5416049109062
 79
     2
 49
16.764
 49
-1208.541
 53
270.0
 43
455.759
 44
-112.213
 45
297.18
 46
0.0000000000000182
 79
     2
 49
16.764
 49
-280.416
 53
243.435
 43
461.703
 44
-100.325
 45
0.0002654438329444
 46
-297.180142413536
 79
     2
 49
16.764
 49
-647.7509999999999
 53
218.66
 43
476.5619999999999
 44
-88.43799999999999
 45
-297.17846495805
 46
-297.1809225609494
 79
     2
 49
19.029
 49
-1883.852
 53
198.435
 43
485.477
 44
-85.46600000000001
 45
-594.3596238450764
 46
-297.1809498735398
 79
     2
 49
16.76399999999999
 49
-923.0019999999997
 53
216.87
 43
497.364
 44
-76.551
 45
-297.1794691121143
 46
-297.1805308869373
 79
     2
 49
16.764
 49
-1469.136
 53
213.69
 43
515.195
 44
-64.664
 45
-297.1807030194682
 46
-297.1800025352557
 79
     2
 49
21.43
 49
-1050.068
 53
180.0
 43
524.1109999999999
 44
-64.664
 45
-0.0000000000000364
 46
-297.18
 79
     2
 49
16.764
 49
-280.416
 53
135.0
 43
533.0259999999999
 44
-73.57899999999999
 45
-297.1800095699574
 46
0.0000000000000284
 79
     2
 49
16.764
 49
-403.5119999999999
 53
116.565
 43
538.97
 44
-85.46600000000001
 45
-297.1798769697031
 46
297.1804078573689
 79
     2
 49
16.764
 49
-647.7509999999999
 53
78.68999999999999
 43
535.998
 44
-100.325
 45
0.0001541256433768
 46
297.1800747105638
 79
     2
 49
16.76399999999999
 49
-1498.563
 53
38.66
 43
521.139
 44
-112.213
 45
297.17846495805
 46
297.1809225609494
 79
     2
 49
19.029
 49
-1883.852
 53
8.13
 43
500.3359999999999
 44
-115.184
 45
1783.080729726442
 46
297.177248508728
 79
     2
 49
21.014
 49
-2080.366
 53
8.13
 43
479.534
 44
-118.156
 45
1783.080729726442
 46
297.177248508728
 79
     2
 49
21.014
 49
-2080.366
 53
9.461999999999997
 43
461.703
 44
-121.128
 45
1485.901861277934
 46
297.1715832776906
 79
     2
 49
18.077
 49
-1789.599
 53
315.0
 43
455.759
 44
-115.184
 45
297.1800095699574
 46
0.0
 79
     2
 49
16.764
 49
-403.5119999999999
 53
296.565
 43
524.1109999999999
 44
-58.71999999999999
 45
297.1798769697031
 46
-297.1804078573689
 79
     2
 49
16.764
 49
-647.7509999999999
 53
243.435
 43
527.0819999999999
 44
-52.777
 45
0.0002654438329444
 46
-297.180142413536
 79
     2
 49
16.764
 49
-647.7509999999999
 53
233.13
 43
535.998
 44
-40.889
 45
-594.3615926612858
 46
-891.5389382237545
 79
     2
 49
16.764
 49
-1469.136
 53
206.565
 43
547.885
 44
-34.946
 45
-297.1804078573689
 46
-297.1798769697031
 79
     2
 49
16.764
 49
-647.7509999999999
 53
180.0
 43
556.7999999999999
 44
-34.946
 45
-0.0000000000000364
 46
-297.18
 79
     2
 49
16.764
 49
-280.416
 53
150.255
 43
577.603
 44
-46.833
 45
-594.3599405747356
 46
297.1811373977098
 79
     2
 49
23.959
 49
-2371.982
 53
158.199
 43
592.4619999999999
 44
-52.777
 45
-891.542155056633
 46
297.1735767493038
 79
     2
 49
16.764
 49
-1583.599
 53
153.435
 43
616.2359999999999
 44
-64.664
 45
-297.180142413536
 46
-0.0002654438329017
 79
     2
 49
26.581
 49
-637.934
 53
143.13
 43
628.124
 44
-73.57899999999999
 45
-891.5389382237544
 46
594.361592661286
 79
     2
 49
16.764
 49
-1469.136
 53
116.565
 43
634.067
 44
-85.46600000000001
 45
-297.1798769697031
 46
297.1804078573689
 79
     2
 49
16.764
 49
-647.7509999999999
 53
63.43499999999999
 43
631.095
 44
-91.41
 45
-0.0002654438329159
 46
297.180142413536
 79
     2
 49
16.764
 49
-647.7509999999999
 53
26.565
 43
625.1519999999999
 44
-94.382
 45
297.1804078573689
 46
297.1798769697031
 79
     2
 49
16.764
 49
-647.7509999999999
 53
350.538
 43
607.321
 44
-91.41
 45
297.180432570399
 46
0.0015068221959282
 79
     2
 49
18.077
 49
-1789.599
 53
344.055
 43
586.518
 44
-85.46600000000001
 45
1188.721747434084
 46
-297.1715036712916
 79
     2
 49
21.635
 49
-2141.868
 53
344.055
 43
565.716
 44
-79.523
 45
1188.721747434084
 46
-297.1715036712916
 79
     2
 49
21.635
 49
-2141.868
 53
343.301
 43
535.998
 44
-70.607
 45
2080.262819153019
 46
-594.3508856984533
 79
     2
 49
31.027
 49
-3071.624
 53
326.31
 43
527.0819999999999
 44
-64.664
 45
594.360223745882
 46
-297.179097593934
 79
     2
 49
16.76399999999999
 49
-1054.733999999999
 53
213.69
 43
589.4899999999999
 44
0.7158
 45
-297.1807030194682
 46
-297.1800025352557
 79
     2
 49
21.43
 49
-1050.068
 53
198.435
 43
598.4059999999999
 44
3.688
 45
-594.3596238450764
 46
-297.1809498735398
 79
     2
 49
16.76399999999999
 49
-923.0019999999997
 53
180.0
 43
604.349
 44
3.688
 45
-0.0000000000000364
 46
-297.18
 79
     2
 49
16.764
 49
-280.416
 53
119.745
 43
616.2359999999999
 44
-17.115
 45
-891.5432926424976
 46
1485.897807106927
 79
     2
 49
23.959
 49
-2371.982
 53
90.0
 43
616.2359999999999
 44
-31.974
 45
-297.18
 46
0.0000000000000182
 79
     2
 49
16.764
 49
-280.416
 53
78.68999999999999
 43
613.2649999999999
 44
-46.833
 45
0.0001541256433768
 46
297.1800747105638
 79
     2
 49
16.76399999999999
 49
-1498.563
 53
45.0
 43
607.321
 44
-52.777
 45
0.0
 46
297.1800095699574
 79
     2
 49
16.764
 49
-403.5119999999999
 53
0.0
 43
598.4059999999999
 44
-52.777
 45
0.0
 46
297.18
 79
     2
 49
16.764
 49
-280.416
 53
338.199
 43
583.5469999999999
 44
-46.833
 45
891.542155056633
 46
-297.1735767493036
 79
     2
 49
16.764
 49
-1583.599
 53
333.435
 43
571.659
 44
-40.889
 45
297.180142413536
 46
0.0002654438329301
 79
     2
 49
16.764
 49
-647.7509999999999
 53
329.036
 43
556.7999999999999
 44
-31.974
 45
594.3584682360069
 46
-297.1823053971208
 79
     2
 49
17.328
 49
-1715.514
 53
270.0
 43
556.7999999999999
 44
-26.03
 45
297.18
 46
0.0000000000000182
 79
     2
 49
16.764
 49
-280.416
 53
213.69
 43
565.716
 44
-20.087
 45
-297.1807030194682
 46
-297.1800025352557
 79
     2
 49
16.764
 49
-1054.734
 53
236.31
 43
571.659
 44
-11.171
 45
-297.1790975939338
 46
-594.3602237458821
 79
     2
 49
16.764
 49
-1054.734
 53
80.538
 43
322.028
 44
-34.946
 45
-0.0015068221958856
 46
297.180432570399
 79
     2
 49
18.077
 49
-1789.599
 53
74.055
 43
316.085
 44
-55.748
 45
297.1715036712914
 46
1188.721747434084
 79
     2
 49
21.635
 49
-2141.868
 53
90.0
 43
316.085
 44
-61.692
 45
-297.18
 46
0.0000000000000182
 79
     2
 49
16.764
 49
-280.416
 53
153.435
 43
327.972
 44
-67.63600000000001
 45
-297.180142413536
 46
-0.0002654438329017
 79
     2
 49
16.764
 49
-647.7509999999999
 53
171.87
 43
348.774
 44
-70.607
 45
-297.1798681473691
 46
-0.0009551512445825
 79
     2
 49
21.014
 49
-2080.366
 53
206.565
 43
354.718
 44
-67.63600000000001
 45
-297.1804078573689
 46
-297.1798769697031
 79
     2
 49
16.764
 49
-647.7509999999999
 53
284.036
 43
348.774
 44
-43.861
 45
297.1765681306076
 46
-891.5416049109062
 79
     2
 49
24.506
 49
-1200.798
 53
291.801
 43
342.831
 44
-29.002
 45
297.1757006628982
 46
-594.3618351825051
 79
     2
 49
16.764
 49
-1583.599
 53
288.435
 43
339.859
 44
-20.087
 45
297.1809498735398
 46
-594.3596238450764
 79
     2
 49
16.764
 49
-923.0019999999999
 53
333.435
 43
333.915
 44
-17.115
 45
297.180142413536
 46
0.0002654438329301
 79
     2
 49
16.764
 49
-647.7509999999999
 53
0.0
 43
325.0
 44
-17.115
 45
0.0
 46
297.18
 79
     2
 49
16.764
 49
-280.416
 53
198.435
 43
348.774
 44
-73.57899999999999
 45
-594.3596238450764
 46
-297.1809498735398
 79
     2
 49
16.76399999999999
 49
-923.0019999999997
 53
180.0
 43
360.662
 44
-73.57899999999999
 45
-0.0000000000000364
 46
-297.18
 79
     2
 49
16.764
 49
-280.416
 53
153.435
 43
366.605
 44
-76.551
 45
-297.180142413536
 46
-0.0002654438329017
 79
     2
 49
16.764
 49
-647.7509999999999
 53
101.31
 43
372.5490000000001
 44
-106.269
 45
-297.1816717935819
 46
1188.71994859932
 79
     2
 49
30.30699999999999
 49
-1485.02
 53
78.68999999999999
 43
369.577
 44
-121.128
 45
0.0001541256433768
 46
297.1800747105638
 79
     2
 49
16.76399999999999
 49
-1498.563
 53
45.0
 43
366.605
 44
-124.1
 45
0.0
 46
297.1800095699574
 79
     2
 49
16.764
 49
-403.5119999999999
 53
0.0
 43
363.633
 44
-124.1
 45
0.0
 46
297.18
 79
     2
 49
16.764
 49
-280.416
 53
326.31
 43
354.718
 44
-118.156
 45
594.360223745882
 46
-297.179097593934
 79
     2
 49
16.76399999999999
 49
-1054.733999999999
 53
306.87
 43
345.8030000000001
 44
-106.269
 45
297.1805308869373
 46
-297.1794691121143
 79
     2
 49
16.764
 49
-1469.136
 53
285.945
 43
339.859
 44
-85.46600000000001
 45
297.1741065565169
 46
-891.5423047025507
 79
     2
 49
21.635
 49
-2141.868
 53
270.0
 43
339.859
 44
-76.551
 45
297.18
 46
0.0000000000000182
 79
     2
 49
16.764
 49
-280.416
 53
0.0
 43
544.913
 44
-79.523
 45
0.0
 46
297.18
 79
     2
 49
16.764
 49
-280.416
 53
63.43499999999999
 43
541.941
 44
-85.46600000000001
 45
-0.0002654438329159
 46
297.180142413536
 79
     2
 49
16.764
 49
-647.7509999999999
 53
71.565
 43
538.97
 44
-94.382
 45
-0.0000507836860208
 46
297.1804189865097
 79
     2
 49
16.764
 49
-923.0019999999999
 53
68.199
 43
533.0259999999999
 44
-109.241
 45
297.1735767493037
 46
891.542155056633
 79
     2
 49
16.764
 49
-1583.599
 53
90.0
 43
533.0259999999999
 44
-115.184
 45
-297.18
 46
0.0000000000000182
 79
     2
 49
16.764
 49
-280.416
 53
135.0
 43
535.998
 44
-118.156
 45
-297.1800095699574
 46
0.0000000000000284
 79
     2
 49
16.764
 49
-403.5119999999999
 53
135.0
 43
541.941
 44
-124.1
 45
-297.1800095699574
 46
0.0000000000000284
 79
     2
 49
16.764
 49
-403.5119999999999
 53
141.34
 43
556.7999999999999
 44
-135.987
 45
-1188.717196980219
 46
891.5437622307106
 79
     2
 49
19.029
 49
-1883.852
 53
108.435
 43
562.7439999999999
 44
-153.818
 45
-297.1809498735397
 46
594.3596238450764
 79
     2
 49
18.795
 49
-920.9699999999999
 53
135.0
 43
574.631
 44
-165.705
 45
-297.1800095699574
 46
0.0000000000000284
 79
     2
 49
16.811
 49
-403.465
 53
167.4709999999999
 43
601.377
 44
-171.649
 45
-1485.89931618719
 46
297.1847458508615
 79
     2
 49
27.399
 49
-2712.466
 53
168.69
 43
616.2359999999999
 44
-174.62
 45
-297.1800747105638
 46
0.0001541256434621
 79
     2
 49
16.764
 49
-1498.563
 53
191.31
 43
631.095
 44
-171.649
 45
-1188.71994859932
 46
-297.1816717935821
 79
     2
 49
16.76399999999999
 49
-1498.563
 53
216.87
 43
642.983
 44
-162.733
 45
-297.1794691121143
 46
-297.1805308869373
 79
     2
 49
16.764
 49
-1469.136
 53
248.199
 43
648.9259999999999
 44
-147.874
 45
-297.1735767493036
 46
-891.542155056633
 79
     2
 49
16.764
 49
-1583.599
 53
260.538
 43
651.8979999999999
 44
-130.043
 45
0.001506822195914
 46
-297.180432570399
 79
     2
 49
18.077
 49
-1789.599
 53
270.0
 43
651.8979999999999
 44
-121.128
 45
297.18
 46
0.0000000000000182
 79
     2
 49
16.764
 49
-280.416
 53
315.0
 43
640.0109999999999
 44
-109.241
 45
297.1800095699574
 46
0.0
 79
     2
 49
16.811
 49
-403.465
 53
296.565
 43
637.039
 44
-103.297
 45
297.1798769697031
 46
-297.1804078573689
 79
     2
 49
16.764
 49
-647.7509999999999
 53
326.31
 43
628.124
 44
-97.354
 45
594.360223745882
 46
-297.179097593934
 79
     2
 49
16.76399999999999
 49
-1054.733999999999
 53
345.964
 43
604.349
 44
-91.41
 45
297.1801140314303
 46
0.0015053481178597
 79
     2
 49
24.506
 49
-1200.798
 53
347.471
 43
577.603
 44
-85.46600000000001
 45
1485.89931618719
 46
-297.1847458508607
 79
     2
 49
27.399
 49
-2712.466
 53
344.055
 43
556.7999999999999
 44
-79.523
 45
1188.721747434084
 46
-297.1715036712916
 79
     2
 49
21.635
 49
-2141.868
 53
270.0
 43
509.2519999999999
 44
15.575
 45
297.18
 46
0.0000000000000182
 79
     2
 49
16.764
 49
-280.416
 53
282.529
 43
503.308
 44
42.321
 45
297.1841823406425
 46
-1188.718472525149
 79
     2
 49
27.399
 49
-2712.466
 53
303.69
 43
491.4209999999999
 44
60.152
 45
297.1800025352558
 46
-297.1807030194682
 79
     2
 49
21.43
 49
-1050.068
 53
319.399
 43
470.618
 44
77.98300000000001
 45
1783.08771382628
 46
-1485.890493217373
 79
     2
 49
27.399
 49
-2712.466
 53
341.565
 43
461.703
 44
80.95399999999999
 45
297.1804189865097
 46
0.0000507836860493
 79
     2
 49
16.76399999999999
 49
-923.0019999999997
 53
352.875
 43
437.928
 44
83.92599999999999
 45
297.1799060262844
 46
0.0004569021616874
 79
     2
 49
23.959
 49
-2371.982
 53
345.964
 43
426.041
 44
86.89799999999999
 45
297.1801140314303
 46
0.0015053481178597
 79
     2
 49
16.764
 49
-1208.541
 53
26.565
 43
414.1539999999999
 44
80.95399999999999
 45
297.1804078573689
 46
297.1798769697031
 79
     2
 49
16.764
 49
-647.7509999999999
 53
36.87
 43
402.2669999999999
 44
72.039
 45
297.1794691121143
 46
297.1805308869373
 79
     2
 49
16.764
 49
-1469.136
 53
71.565
 43
399.295
 44
63.124
 45
-0.0000507836860208
 46
297.1804189865097
 79
     2
 49
16.764
 49
-923.0019999999999
 53
108.435
 43
402.2669999999999
 44
54.20799999999999
 45
-297.1809498735397
 46
594.3596238450764
 79
     2
 49
16.764
 49
-923.0019999999999
 53
135.0
 43
411.1819999999999
 44
45.293
 45
-297.1800095699574
 46
0.0000000000000284
 79
     2
 49
16.764
 49
-403.5119999999999
 53
141.34
 43
426.041
 44
33.406
 45
-1188.717196980219
 46
891.5437622307106
 79
     2
 49
19.029
 49
-1883.852
 53
126.87
 43
434.9569999999999
 44
21.518
 45
-297.1805308869372
 46
297.1794691121143
 79
     2
 49
16.764
 49
-1469.136
 53
110.556
 43
443.8719999999999
 44
-2.255999999999999
 45
-594.3584684261568
 46
1485.900332713844
 79
     2
 49
25.391
 49
-2513.716
 53
116.565
 43
446.844
 44
-8.199999999999999
 45
-297.1798769697031
 46
297.1804078573689
 79
     2
 49
16.764
 49
-647.7509999999999
 53
123.69
 43
452.787
 44
-17.115
 45
-297.1800025352557
 46
297.1807030194683
 79
     2
 49
16.764
 49
-1054.734
 53
135.0
 43
455.759
 44
-20.087
 45
-297.1800095699574
 46
0.0000000000000284
 79
     2
 49
16.764
 49
-403.5119999999999
 53
198.435
 43
473.5899999999999
 44
-14.143
 45
-594.3596238450764
 46
-297.1809498735398
 79
     2
 49
18.795
 49
-920.9699999999999
 53
206.565
 43
485.477
 44
-8.199999999999999
 45
-297.1804078573689
 46
-297.1798769697031
 79
     2
 49
16.764
 49
-647.7509999999999
 53
210.964
 43
500.3359999999999
 44
0.7158
 45
-891.5374996927507
 46
-594.3638624803821
 79
     2
 49
17.328
 49
-1715.514
 53
213.69
 43
509.2519999999999
 44
6.658999999999999
 45
-297.1807030194682
 46
-297.1800025352557
 79
     2
 49
16.764
 49
-1054.734
 53
278.13
 43
509.2519999999999
 44
33.406
 45
297.1772485087278
 46
-1783.080729726442
 79
     2
 49
21.014
 49
-2080.366
 53
284.036
 43
506.28
 44
45.293
 45
297.1765681306076
 46
-891.5416049109062
 79
     2
 49
16.764
 49
-1208.541
 53
288.435
 43
503.308
 44
54.20799999999999
 45
297.1809498735398
 46
-594.3596238450764
 79
     2
 49
16.764
 49
-923.0019999999999
 53
236.31
 43
509.2519999999999
 44
63.124
 45
-297.1790975939338
 46
-594.3602237458821
 79
     2
 49
16.764
 49
-1054.734
 53
213.69
 43
518.1669999999999
 44
69.06699999999999
 45
-297.1807030194682
 46
-297.1800025352557
 79
     2
 49
16.764
 49
-1054.734
 53
225.0
 43
527.0819999999999
 44
77.98300000000001
 45
0.0000000000000284
 46
-297.1800095699574
 79
     2
 49
16.764
 49
-403.5119999999999
 53
213.69
 43
535.998
 44
83.92599999999999
 45
-297.1807030194682
 46
-297.1800025352557
 79
     2
 49
16.764
 49
-1054.734
 53
180.0
 43
553.829
 44
83.92599999999999
 45
-0.0000000000000364
 46
-297.18
 79
     2
 49
17.831
 49
-279.349
 53
135.0
 43
559.7719999999999
 44
77.98300000000001
 45
-297.1800095699574
 46
0.0000000000000284
 79
     2
 49
16.764
 49
-403.5119999999999
 53
99.46199999999997
 43
562.7439999999999
 44
60.152
 45
-297.1715832776907
 46
1485.901861277934
 79
     2
 49
18.077
 49
-1789.599
 53
90.0
 43
562.7439999999999
 44
51.236
 45
-297.18
 46
0.0000000000000182
 79
     2
 49
16.764
 49
-280.416
 53
63.43499999999999
 43
556.7999999999999
 44
39.34900000000001
 45
-0.0002654438329159
 46
297.180142413536
 79
     2
 49
16.764
 49
-647.7509999999999
 53
26.565
 43
544.913
 44
33.406
 45
297.1804078573689
 46
297.1798769697031
 79
     2
 49
16.764
 49
-647.7509999999999
 53
45.0
 43
533.0259999999999
 44
21.518
 45
0.0
 46
297.1800095699574
 79
     2
 49
16.811
 49
-403.465
 53
33.69
 43
524.1109999999999
 44
15.575
 45
297.1807030194682
 46
297.1800025352557
 79
     2
 49
16.76399999999999
 49
-1054.733999999999
 53
26.565
 43
518.1669999999999
 44
12.603
 45
297.1804078573689
 46
297.1798769697031
 79
     2
 49
16.764
 49
-647.7509999999999
 53
0.0
 43
512.223
 44
12.603
 45
0.0
 46
297.18
 79
     2
 49
16.764
 49
-280.416
 53
288.435
 43
384.436
 44
-2.255999999999999
 45
297.1809498735398
 46
-594.3596238450764
 79
     2
 49
16.764
 49
-923.0019999999999
 53
308.66
 43
372.5490000000001
 44
12.603
 45
297.1809225609494
 46
-297.17846495805
 79
     2
 49
19.029
 49
-1883.852
 53
320.194
 43
354.718
 44
27.462
 45
1485.891102217423
 46
-1188.731123867416
 79
     2
 49
23.211
 49
-2297.84
 53
324.462
 43
333.915
 44
42.321
 45
891.5366495729944
 46
-594.3655895702236
 79
     2
 49
25.564
 49
-2530.875
 53
315.0
 43
316.085
 44
60.152
 45
297.1800095699574
 46
0.0
 79
     2
 49
25.217
 49
-395.059
 53
296.565
 43
304.197
 44
83.92599999999999
 45
297.1798769697031
 46
-297.1804078573689
 79
     2
 49
26.581
 49
-637.934
 53
270.0
 43
304.197
 44
92.84200000000002
 45
297.18
 46
0.0000000000000182
 79
     2
 49
16.764
 49
-280.416
 53
243.435
 43
307.169
 44
98.785
 45
0.0002654438329444
 46
-297.180142413536
 79
     2
 49
16.764
 49
-647.7509999999999
 53
191.31
 43
322.028
 44
101.757
 45
-1188.71994859932
 46
-297.1816717935821
 79
     2
 49
16.76399999999999
 49
-1498.563
 53
180.0
 43
342.831
 44
101.757
 45
-0.0000000000000364
 46
-297.18
 79
     2
 49
20.803
 49
-276.377
 53
180.0
 43
357.69
 44
101.757
 45
-0.0000000000000364
 46
-297.18
 79
     2
 49
16.764
 49
-280.416
 53
161.565
 43
366.605
 44
98.785
 45
-297.1804189865097
 46
-0.0000507836860066
 79
     2
 49
16.764
 49
-923.0019999999999
 53
129.806
 43
381.464
 44
80.95399999999999
 45
-297.1822248054676
 46
297.1777755143755
 79
     2
 49
23.211
 49
-2297.84
 53
125.538
 43
396.323
 44
60.152
 45
-891.5460956504833
 46
1188.714975698707
 79
     2
 49
25.564
 49
-2530.875
 53
129.806
 43
411.1819999999999
 44
42.321
 45
-297.1822248054676
 46
297.1777755143755
 79
     2
 49
23.211
 49
-2297.84
 53
141.34
 43
426.041
 44
30.434
 45
-1188.717196980219
 46
891.5437622307106
 79
     2
 49
19.029
 49
-1883.852
 53
123.69
 43
431.985
 44
21.518
 45
-297.1800025352557
 46
297.1807030194683
 79
     2
 49
16.764
 49
-1054.734
 53
108.435
 43
434.9569999999999
 44
12.603
 45
-297.1809498735397
 46
594.3596238450764
 79
     2
 49
16.764
 49
-923.0019999999999
 53
90.0
 43
434.9569999999999
 44
3.688
 45
-297.18
 46
0.0000000000000182
 79
     2
 49
16.764
 49
-280.416
 53
45.0
 43
429.013
 44
-2.255999999999999
 45
0.0
 46
297.1800095699574
 79
     2
 49
16.764
 49
-403.5119999999999
 53
18.435
 43
420.098
 44
-5.227999999999999
 45
594.3596238450764
 46
297.1809498735398
 79
     2
 49
16.764
 49
-923.0019999999999
 53
11.31
 43
405.239
 44
-8.199999999999999
 45
1188.71994859932
 46
297.1816717935818
 79
     2
 49
16.76399999999999
 49
-1498.563
 53
9.461999999999997
 43
387.408
 44
-11.171
 45
1485.901861277934
 46
297.1715832776906
 79
     2
 49
18.077
 49
-1789.599
 53
270.0
 43
310.141
 44
15.575
 45
297.18
 46
0.0000000000000182
 79
     2
 49
16.764
 49
-280.416
 53
225.0
 43
319.056
 44
24.49
 45
0.0000000000000284
 46
-297.1800095699574
 79
     2
 49
16.764
 49
-403.5119999999999
 53
191.31
 43
333.915
 44
27.462
 45
-1188.71994859932
 46
-297.1816717935821
 79
     2
 49
16.76399999999999
 49
-1498.563
 53
180.0
 43
345.8030000000001
 44
27.462
 45
-0.0000000000000364
 46
-297.18
 79
     2
 49
16.764
 49
-280.416
 53
153.435
 43
357.69
 44
21.518
 45
-297.180142413536
 46
-0.0002654438329017
 79
     2
 49
16.764
 49
-647.7509999999999
 53
143.13
 43
369.577
 44
12.603
 45
-891.5389382237544
 46
594.361592661286
 79
     2
 49
16.764
 49
-1469.136
 53
126.87
 43
378.492
 44
0.7158
 45
-297.1805308869372
 46
297.1794691121143
 79
     2
 49
16.764
 49
-1469.136
 53
108.435
 43
381.464
 44
-8.199999999999999
 45
-297.1809498735397
 46
594.3596238450764
 79
     2
 49
16.764
 49
-923.0019999999999
 53
45.0
 43
378.492
 44
-11.171
 45
0.0
 46
297.1800095699574
 79
     2
 49
16.764
 49
-403.5119999999999
 53
14.036
 43
366.605
 44
-14.143
 45
891.5416049109062
 46
297.1765681306075
 79
     2
 49
16.764
 49
-1208.541
 53
14.036
 43
354.718
 44
-17.115
 45
891.5416049109062
 46
297.1765681306075
 79
     2
 49
16.764
 49
-1208.541
 53
0.0
 43
339.859
 44
-17.115
 45
0.0
 46
297.18
 79
     2
 49
16.764
 49
-280.416
 53
348.69
 43
325.0
 44
-14.143
 45
297.1800747105638
 46
-0.0001541256433839
 79
     2
 49
16.764
 49
-1498.563
 53
333.435
 43
319.056
 44
-11.171
 45
297.180142413536
 46
0.0002654438329301
 79
     2
 49
16.764
 49
-647.7509999999999
 53
303.69
 43
313.113
 44
-2.255999999999999
 45
297.1800025352558
 46
-297.1807030194682
 79
     2
 49
16.764
 49
-1054.734
 53
296.565
 43
310.141
 44
3.688
 45
297.1798769697031
 46
-297.1804078573689
 79
     2
 49
16.764
 49
-647.7509999999999
 53
270.0
 43
574.631
 44
33.406
 45
297.18
 46
0.0000000000000182
 79
     2
 49
23.774
 49
-273.406
 53
279.462
 43
571.659
 44
51.236
 45
297.1715832776908
 46
-1485.901861277934
 79
     2
 49
18.077
 49
-1789.599
 53
236.31
 43
577.603
 44
60.152
 45
-297.1790975939338
 46
-594.3602237458821
 79
     2
 49
16.764
 49
-1054.734
 53
206.565
 43
583.5469999999999
 44
63.124
 45
-297.1804078573689
 46
-297.1798769697031
 79
     2
 49
16.764
 49
-647.7509999999999
 53
171.87
 43
604.349
 44
60.152
 45
-297.1798681473691
 46
-0.0009551512445825
 79
     2
 49
21.014
 49
-2080.366
 53
153.435
 43
616.2359999999999
 44
54.20799999999999
 45
-297.180142413536
 46
-0.0002654438329017
 79
     2
 49
16.764
 49
-647.7509999999999
 53
135.0
 43
625.1519999999999
 44
45.293
 45
-297.1800095699574
 46
0.0000000000000284
 79
     2
 49
16.764
 49
-403.5119999999999
 53
116.565
 43
628.124
 44
39.34900000000001
 45
-297.1798769697031
 46
297.1804078573689
 79
     2
 49
16.764
 49
-647.7509999999999
 53
63.43499999999999
 43
625.1519999999999
 44
33.406
 45
-0.0002654438329159
 46
297.180142413536
 79
     2
 49
16.764
 49
-647.7509999999999
 53
33.69
 43
616.2359999999999
 44
27.462
 45
297.1807030194682
 46
297.1800025352557
 79
     2
 49
16.76399999999999
 49
-1054.733999999999
 53
45.0
 43
607.321
 44
18.547
 45
0.0
 46
297.1800095699574
 79
     2
 49
16.764
 49
-403.5119999999999
 53
71.565
 43
604.349
 44
9.631
 45
-0.0000507836860208
 46
297.1804189865097
 79
     2
 49
16.764
 49
-923.0019999999999
 53
33.69
 43
595.434
 44
3.688
 45
297.1807030194682
 46
297.1800025352557
 79
     2
 49
16.76399999999999
 49
-1054.733999999999
 53
11.31
 43
580.575
 44
0.7158
 45
1188.71994859932
 46
297.1816717935818
 79
     2
 49
16.76399999999999
 49
-1498.563
 53
303.69
 43
574.631
 44
9.631
 45
297.1800025352558
 46
-297.1807030194682
 79
     2
 49
16.764
 49
-1054.734
 53
270.0
 43
574.631
 44
15.575
 45
297.18
 46
0.0000000000000182
 79
     2
 49
16.764
 49
-280.416
 53
0.0
 43
580.575
 44
-168.677
 45
0.0
 46
297.18
 79
     2
 49
16.764
 49
-280.416
 53
33.69
 43
571.659
 44
-174.62
 45
297.1807030194682
 46
297.1800025352557
 79
     2
 49
16.76399999999999
 49
-1054.733999999999
 53
29.74499999999999
 43
550.8569999999999
 44
-186.508
 45
1485.897807106927
 46
891.5432926424976
 79
     2
 49
23.959
 49
-2371.982
 53
63.43499999999999
 43
544.913
 44
-198.395
 45
-0.0002654438329159
 46
297.180142413536
 79
     2
 49
16.764
 49
-647.7509999999999
 53
123.69
 43
550.8569999999999
 44
-207.31
 45
-297.1800025352557
 46
297.1807030194683
 79
     2
 49
16.764
 49
-1054.734
 53
153.435
 43
556.7999999999999
 44
-210.282
 45
-297.180142413536
 46
-0.0002654438329017
 79
     2
 49
16.764
 49
-647.7509999999999
 53
135.0
 43
565.716
 44
-219.197
 45
-297.1800095699574
 46
0.0000000000000284
 79
     2
 49
16.764
 49
-403.5119999999999
 53
149.036
 43
580.575
 44
-228.113
 45
-594.3584682360069
 46
297.1823053971208
 79
     2
 49
17.328
 49
-1715.514
 53
161.565
 43
589.4899999999999
 44
-231.085
 45
-297.1804189865097
 46
-0.0000507836860066
 79
     2
 49
16.764
 49
-923.0019999999999
 53
198.435
 43
598.4059999999999
 44
-228.113
 45
-594.3596238450764
 46
-297.1809498735398
 79
     2
 49
16.76399999999999
 49
-923.0019999999997
 53
251.565
 43
601.377
 44
-219.197
 45
0.0000507836860635
 46
-297.1804189865097
 79
     2
 49
16.764
 49
-923.0019999999999
 53
279.462
 43
598.4059999999999
 44
-201.367
 45
297.1715832776908
 46
-1485.901861277934
 79
     2
 49
18.077
 49
-1789.599
 53
270.0
 43
598.4059999999999
 44
-189.479
 45
297.18
 46
0.0000000000000182
 79
     2
 49
16.764
 49
-280.416
 53
284.036
 43
595.434
 44
-177.592
 45
297.1765681306076
 46
-891.5416049109062
 79
     2
 49
16.764
 49
-1208.541
 53
323.13
 43
583.5469999999999
 44
-168.677
 45
891.5389382237545
 46
-594.3615926612859
 79
     2
 49
16.764
 49
-1469.136
 53
113.199
 43
449.8159999999999
 44
-165.705
 45
-297.1845824354094
 46
594.3577574749836
 79
     2
 49
22.633
 49
-2240.623
 53
130.601
 43
467.6459999999999
 44
-186.508
 45
-297.1786646124808
 46
297.1812872627458
 79
     2
 49
27.399
 49
-2712.466
 53
142.125
 43
494.393
 44
-207.31
 45
-1188.719191898329
 46
891.5404282193732
 79
     2
 49
33.884
 49
-3354.49
 53
144.462
 43
515.195
 44
-222.169
 45
-891.5366495729946
 46
594.3655895702234
 79
     2
 49
25.564
 49
-2530.875
 53
180.0
 43
524.1109999999999
 44
-222.169
 45
-0.0000000000000364
 46
-297.18
 79
     2
 49
16.764
 49
-280.416
 53
237.995
 43
538.97
 44
-198.395
 45
-891.5301108414929
 46
-1485.906009005938
 79
     2
 49
28.036
 49
-2775.555
 53
240.255
 43
550.8569999999999
 44
-177.592
 45
-297.1811373977098
 46
-594.3599405747358
 79
     2
 49
23.959
 49
-2371.982
 53
243.435
 43
556.7999999999999
 44
-165.705
 45
0.0002654438329444
 46
-297.180142413536
 79
     2
 49
16.764
 49
-647.7509999999999
 53
270.0
 43
556.7999999999999
 44
-141.931
 45
297.18
 46
0.0000000000000182
 79
     2
 49
23.774
 49
-273.406
 53
303.69
 43
550.8569999999999
 44
-133.015
 45
297.1800025352558
 46
-297.1807030194682
 79
     2
 49
16.764
 49
-1054.734
 53
321.34
 43
535.998
 44
-121.128
 45
1188.717196980219
 46
-891.5437622307107
 79
     2
 49
19.029
 49
-1883.852
 53
326.31
 43
527.0819999999999
 44
-115.184
 45
594.360223745882
 46
-297.179097593934
 79
     2
 49
16.76399999999999
 49
-1054.733999999999
 53
0.0
 43
518.1669999999999
 44
-115.184
 45
0.0
 46
297.18
 79
     2
 49
16.764
 49
-280.416
 53
5.193999999999999
 43
485.477
 44
-118.156
 45
2971.802417321035
 46
297.1573563465237
 79
     2
 49
32.82500000000001
 49
-3249.636000000001
 53
9.461999999999997
 43
467.6459999999999
 44
-121.128
 45
1485.901861277934
 46
297.1715832776906
 79
     2
 49
18.077
 49
-1789.599
 53
11.31
 43
452.787
 44
-124.1
 45
1188.71994859932
 46
297.1816717935818
 79
     2
 49
16.76399999999999
 49
-1498.563
 53
45.0
 43
446.844
 44
-130.043
 45
0.0
 46
297.1800095699574
 79
     2
 49
16.764
 49
-403.5119999999999
 53
63.43499999999999
 43
443.8719999999999
 44
-135.987
 45
-0.0002654438329159
 46
297.180142413536
 79
     2
 49
16.764
 49
-647.7509999999999
 53
71.565
 43
440.8999999999999
 44
-144.902
 45
-0.0000507836860208
 46
297.1804189865097
 79
     2
 49
16.764
 49
-923.0019999999999
 98
        1
 10
0.0
 20
0.0
1001
REVIT
1002
{
1070
     1
1000
771081
1002
}
1002
{
1070
     5
1000
715675
1002
}
1002
{
1070
     2
1000
-2002000
1002
}
  0
HATCH
  5
EC
330
70
100
AcDbEntity
  8
_ARDEX - WELDTEC TANKING_
 62
     8
420
  8421504
100
AcDbHatch
 10
0.0
 20
0.0
 30
0.0
210
0.0
220
0.0
230
1.0
  2
FP_2
 70
     0
 71
     0
 91
        1
 92
        1
 93
        9
 72
     1
 10
4537.992869196674
 20
1919.394257459964
 11
4746.867869196677
 21
2128.269257459967
 72
     1
 10
4746.867869196677
 20
2128.269257459967
 11
5020.800425918044
 21
2128.269257459966
 72
     1
 10
5020.800425918044
 20
2128.269257459966
 11
5020.800425918044
 21
2203.269257459966
 72
     1
 10
5020.800425918044
 20
2203.269257459966
 11
4715.801852018696
 21
2203.269257459968
 72
     1
 10
4715.801852018696
 20
2203.269257459968
 11
4506.926852018692
 21
1994.394257459965
 72
     1
 10
4506.926852018692
 20
1994.394257459965
 11
3826.47936013403
 21
1994.394257459967
 72
     1
 10
3826.47936013403
 20
1994.394257459967
 11
3826.47936013403
 21
1919.394257459966
 72
     1
 10
3826.47936013403
 20
1919.394257459966
 11
3986.983891512247
 21
1919.394257459966
 72
     1
 10
3986.983891512247
 20
1919.394257459966
 11
4537.992869196674
 21
1919.394257459964
 97
        0
 75
     0
 76
     2
 52
0.0
 41
1.0
 77
     0
 78
     9
 53
0.0
 43
0.0
 44
0.0
 45
40.64
 46
10.16
 79
     5
 49
3.353
 49
-27.127
 49
3.353
 49
-27.127
 49
-162.56
 53
0.0
 43
0.0
 44
0.0
 45
40.64
 46
10.16
 79
     6
 49
-60.96
 49
3.353
 49
-57.60699999999999
 49
3.353
 49
-27.127
 49
-71.12
 53
0.0
 43
0.0
 44
0.0
 45
40.64
 46
10.16
 79
     5
 49
-152.4
 49
3.353
 49
-16.967
 49
3.353
 49
-47.44699999999999
 53
120.0
 43
15.24
 44
5.08
 45
-29.11881810244988
 46
30.1152724097996
 79
     5
 49
3.352999999999999
 49
-27.127
 49
3.352999999999999
 49
-27.127
 49
-162.5599999999999
 53
120.0
 43
15.24
 44
5.08
 45
-29.11881810244988
 46
30.1152724097996
 79
     6
 49
-60.96
 49
3.352999999999999
 49
-57.60699999999999
 49
3.352999999999999
 49
-27.127
 49
-71.11999999999999
 53
120.0
 43
15.24
 44
5.08
 45
-29.11881810244988
 46
30.1152724097996
 79
     5
 49
-152.4
 49
3.352999999999999
 49
-16.96699999999999
 49
3.352999999999999
 49
-47.44699999999999
 53
240.0
 43
20.32
 44
25.4
 45
-11.52118189755009
 46
-40.27527240979959
 79
     5
 49
3.353
 49
-27.127
 49
3.353
 49
-27.127
 49
-162.56
 53
240.0
 43
20.32
 44
25.4
 45
-11.52118189755009
 46
-40.27527240979959
 79
     6
 49
-60.96
 49
3.353
 49
-57.60699999999999
 49
3.353
 49
-27.127
 49
-71.12
 53
240.0
 43
20.32
 44
25.4
 45
-11.52118189755009
 46
-40.27527240979959
 79
     5
 49
-152.4
 49
3.353
 49
-16.967
 49
3.353
 49
-47.44699999999999
 98
        1
 10
0.0
 20
0.0
1001
REVIT
1002
{
1070
     1
1000
771120
1002
}
1002
{
1070
     5
1000
729406
1002
}
1002
{
1070
     2
1000
-2002000
1002
}
  0
INSERT
  5
101
330
70
100
AcDbEntity
  8
_ARDEX - WELDTEC TANKING_
100
AcDbBlockReference
  2
_ARDEX_ Lining - Various - Concrete Wall 200-729082-_X_ - AS-10 FOOTING JUNCTION NO STEP
 10
4049.233309523766
 20
2368.269257459965
 30
0.0
 50
90.0
1001
REVIT
1002
{
1070
     1
1000
771071
1002
}
1002
{
1070
     5
1000
706305
1002
}
1002
{
1070
     2
1000
-2002000
1002
}
  0
INSERT
  5
10D
330
70
100
AcDbEntity
  8
_ARDEX - WELDTEC TANKING_
100
AcDbBlockReference
  2
_ARDEX_ Waterstop - _ARDEX_ Water Stop-708192-_X_ - AS-10 FOOTING JUNCTION NO STEP
 10
3960.726098638466
 20
2368.269257459965
 30
0.0
1001
REVIT
1002
{
1070
     1
1000
771070
1002
}
1002
{
1070
     5
1000
707735
1002
}
1002
{
1070
     2
1000
-2002000
1002
}
  0
INSERT
  5
119
330
70
100
AcDbEntity
  8
_ARDEX - WELDTEC TANKING_
100
AcDbBlockReference
  2
_ARDEX_ Lining - Various - Protection Board-777913-_X_ - AS-10 FOOTING JUNCTION NO STEP
 10
3794.741690708774
 20
2117.118149606341
 30
0.0
 50
89.99999999999984
1001
REVIT
1002
{
1070
     1
1000
771078
1002
}
1002
{
1070
     5
1000
715094
1002
}
1002
{
1070
     2
1000
-2002000
1002
}
  0
INSERT
  5
121
330
70
100
AcDbEntity
  8
_ARDEX - WELDTEC TANKING_
100
AcDbBlockReference
  2
_ARDEX_ Drain 100mm - _ARDEX_ Drain 100mm-718934-_X_ - AS-10 FOOTING JUNCTION NO STEP
 10
3459.444537250567
 20
2183.797087529662
 30
0.0
1001
REVIT
1002
{
1070
     1
1000
771092
1002
}
1002
{
1070
     5
1000
718934
1002
}
1002
{
1070
     2
1000
-2002000
1002
}
  0
INSERT
  5
13A
330
70
100
AcDbEntity
  8
_ARDEX - WELDTEC TANKING_
100
AcDbBlockReference
  2
_ARDEX_ Concrete Base No Step without Chamfer - _ARDEX_ Concrete Base No Step without Chamfer-777883-_X_ - AS-10 FOOTING JUNCTION NO STEP
 10
3849.233309523767
 20
2218.269257459964
 30
0.0
1001
REVIT
1002
{
1070
     1
1000
771103
1002
}
1002
{
1070
     5
1000
771491
1002
}
1002
{
1070
     2
1000
-2002000
1002
}
  0
INSERT
  5
13F
330
70
100
AcDbEntity
  8
_ARDEX - WELDTEC TANKING_
100
AcDbBlockReference
  2
_ARDEX_ Lines - WPM240 Primer-729093-_X_ - AS-10 FOOTING JUNCTION NO STEP
 10
3834.241690708775
 20
2993.269257459964
 30
0.0
 50
269.9999999999999
1001
REVIT
1002
{
1070
     1
1000
771104
1002
}
1002
{
1070
     5
1000
708929
1002
}
1002
{
1070
     2
1000
-2002000
1002
}
  0
INSERT
  5
144
330
70
100
AcDbEntity
  8
_ARDEX - WELDTEC TANKING_
100
AcDbBlockReference
  2
_ARDEX_ Lines - WPM240 Primer-775742-_X_ - AS-10 FOOTING JUNCTION NO STEP
 10
3834.241690708775
 20
2371.168752396576
 30
0.0
 50
224.9999999999996
1001
REVIT
1002
{
1070
     1
1000
771105
1002
}
1002
{
1070
     5
1000
708929
1002
}
1002
{
1070
     2
1000
-2002000
1002
}
  0
INSERT
  5
149
330
70
100
AcDbEntity
  8
_ARDEX - WELDTEC TANKING_
100
AcDbBlockReference
  2
_ARDEX_ Lines - WPM240 Primer-775743-_X_ - AS-10 FOOTING JUNCTION NO STEP
 10
3819.241690708775
 20
2356.168752396577
 30
0.0
 50
269.9999999999999
1001
REVIT
1002
{
1070
     1
1000
771106
1002
}
1002
{
1070
     5
1000
708929
1002
}
1002
{
1070
     2
1000
-2002000
1002
}
  0
INSERT
  5
14F
330
70
100
AcDbEntity
  8
_ARDEX - WELDTEC TANKING_
100
AcDbBlockReference
  2
_ARDEX_ Lines - DPC-772350-_X_ - AS-10 FOOTING JUNCTION NO STEP
 10
5020.800425918037
 20
2211.269257459964
 30
0.0
 50
180.0
1001
REVIT
1002
{
1070
     1
1000
771109
1002
}
1002
{
1070
     5
1000
709010
1002
}
1002
{
1070
     2
1000
-2002000
1002
}
  0
INSERT
  5
154
330
70
100
AcDbEntity
  8
_ARDEX - WELDTEC TANKING_
100
AcDbBlockReference
  2
_ARDEX_ Lines - DPC-772715-_X_ - AS-10 FOOTING JUNCTION NO STEP
 10
4507.333814587152
 20
2011.269257459964
 30
0.0
 50
180.0
1001
REVIT
1002
{
1070
     1
1000
771111
1002
}
1002
{
1070
     5
1000
709010
1002
}
1002
{
1070
     2
1000
-2002000
1002
}
  0
INSERT
  5
159
330
70
100
AcDbEntity
  8
_ARDEX - WELDTEC TANKING_
100
AcDbBlockReference
  2
_ARDEX_ Lines - DPC-772351-_X_ - AS-10 FOOTING JUNCTION NO STEP
 10
4707.333814587155
 20
2211.269257459965
 30
0.0
 50
224.9999999999999
1001
REVIT
1002
{
1070
     1
1000
772342
1002
}
1002
{
1070
     5
1000
709010
1002
}
1002
{
1070
     2
1000
-2002000
1002
}
  0
INSERT
  5
15E
330
70
100
AcDbEntity
  8
_ARDEX - WELDTEC TANKING_
 62
   133
420
  7589074
100
AcDbBlockReference
  2
_ARDEX_ Lines - WPM 3000X DPM Membrane-777066-_X_ - AS-10 FOOTING JUNCTION NO STEP
 10
3825.964672566004
 20
2991.829787018943
 30
0.0
 50
270.0
1001
REVIT
1002
{
1070
     1
1000
775754
1002
}
1002
{
1070
     5
1000
767633
1002
}
1002
{
1070
     2
1000
-2002000
1002
}
  0
HATCH
  5
183
330
70
100
AcDbEntity
  8
_ARDEX - WELDTEC TANKING_
 62
     8
420
  8421504
100
AcDbHatch
 10
0.0
 20
0.0
 30
0.0
210
0.0
220
0.0
230
1.0
  2
FP_6
 70
     0
 71
     0
 91
        2
 92
        1
 93
       12
 72
     1
 10
3454.011873716215
 20
2062.667301593379
 11
3562.303161879429
 21
2068.424780646887
 72
     1
 10
3562.303161879429
 20
2068.424780646887
 11
3669.542786305783
 21
2084.543546418322
 72
     1
 10
3669.542786305783
 20
2084.543546418322
 11
3774.741690708777
 21
2110.874937750931
 72
     1
 10
3774.741690708777
 20
2110.874937750931
 11
3774.741690708779
 21
2366.67232373405
 72
     1
 10
3774.741690708779
 20
2366.67232373405
 11
3799.741690708778
 21
2391.672323734049
 72
     1
 10
3799.741690708778
 20
2391.672323734049
 11
3799.741690708779
 21
2991.829787018946
 72
     1
 10
3799.741690708779
 20
2991.829787018946
 11
3132.808807103053
 21
2991.829787018947
 72
     1
 10
3132.808807103053
 20
2991.829787018947
 11
3132.808807103044
 21
2107.613732934154
 72
     1
 10
3132.808807103044
 20
2107.613732934154
 11
3238.269816688578
 21
2082.352554927185
 72
     1
 10
3238.269816688578
 20
2082.352554927185
 11
3345.667677452453
 21
2067.324209694159
 72
     1
 10
3345.667677452453
 20
2067.324209694159
 11
3374.421391512343
 21
2066.088302201643
 72
     1
 10
3374.421391512343
 20
2066.088302201643
 11
3454.011873716215
 21
2062.667301593379
 97
        0
 92
        1
 93
       24
 72
     1
 10
3459.766867720907
 20
2133.619418
 11
3446.82591546578
 21
2135.323126685547
 72
     1
 10
3446.82591546578
 20
2135.323126685547
 11
3434.766867720906
 21
2140.318147810778
 72
     1
 10
3434.766867720906
 20
2140.318147810778
 11
3424.411528661579
 21
2148.264078940672
 72
     1
 10
3424.411528661579
 20
2148.264078940672
 11
3416.465597531684
 21
2158.619418
 72
     1
 10
3416.465597531684
 20
2158.619418
 11
3411.470576406452
 21
2170.678465744874
 72
     1
 10
3411.470576406452
 20
2170.678465744874
 11
3409.766867720906
 21
2183.619418
 72
     1
 10
3409.766867720906
 20
2183.619418
 11
3411.470576406452
 21
2196.560370255125
 72
     1
 10
3411.470576406452
 20
2196.560370255125
 11
3416.465597531684
 21
2208.619418
 72
     1
 10
3416.465597531684
 20
2208.619418
 11
3424.411528661579
 21
2218.974757059327
 72
     1
 10
3424.411528661579
 20
2218.974757059327
 11
3434.766867720906
 21
2226.920688189222
 72
     1
 10
3434.766867720906
 20
2226.920688189222
 11
3446.82591546578
 21
2231.915709314454
 72
     1
 10
3446.82591546578
 20
2231.915709314454
 11
3459.766867720907
 21
2233.619418
 72
     1
 10
3459.766867720907
 20
2233.619418
 11
3472.707819976032
 21
2231.915709314454
 72
     1
 10
3472.707819976032
 20
2231.915709314454
 11
3484.766867720906
 21
2226.920688189222
 72
     1
 10
3484.766867720906
 20
2226.920688189222
 11
3495.122206780233
 21
2218.974757059328
 72
     1
 10
3495.122206780233
 20
2218.974757059328
 11
3503.068137910128
 21
2208.619418
 72
     1
 10
3503.068137910128
 20
2208.619418
 11
3508.063159035359
 21
2196.560370255127
 72
     1
 10
3508.063159035359
 20
2196.560370255127
 11
3509.766867720906
 21
2183.619418000001
 72
     1
 10
3509.766867720906
 20
2183.619418000001
 11
3508.063159035359
 21
2170.678465744874
 72
     1
 10
3508.063159035359
 20
2170.678465744874
 11
3503.068137910128
 21
2158.619418
 72
     1
 10
3503.068137910128
 20
2158.619418
 11
3495.122206780234
 21
2148.264078940672
 72
     1
 10
3495.122206780234
 20
2148.264078940672
 11
3484.766867720906
 21
2140.318147810778
 72
     1
 10
3484.766867720906
 20
2140.318147810778
 11
3472.707819976032
 21
2135.323126685547
 72
     1
 10
3472.707819976032
 20
2135.323126685547
 11
3459.766867720907
 21
2133.619418
 97
        0
 75
     0
 76
     2
 52
0.0
 41
1.0
 77
     0
 78
   334
 53
0.0
 43
330.628
 44
14.265
 45
0.0
 46
178.308
 79
     2
 49
10.058
 49
-168.25
 53
0.0
 43
284.268
 44
87.37100000000001
 45
0.0
 46
178.308
 79
     2
 49
10.058
 49
-168.25
 53
180.0
 43
346.676
 44
94.50299999999998
 45
-0.0000000000000218
 46
-178.308
 79
     2
 49
10.058
 49
-168.25
 53
0.0
 43
312.797
 44
108.768
 45
0.0
 46
178.308
 79
     2
 49
10.058
 49
-168.25
 53
0.0
 43
311.014
 44
110.551
 45
0.0
 46
178.308
 79
     2
 49
10.058
 49
-168.25
 53
0.0
 43
187.982
 44
139.08
 45
0.0
 46
178.308
 79
     2
 49
10.058
 49
-168.25
 53
0.0
 43
214.728
 44
174.742
 45
0.0
 46
178.308
 79
     2
 49
10.058
 49
-168.25
 53
0.0
 43
220.077
 44
147.996
 45
0.0
 46
178.308
 79
     2
 49
10.058
 49
-168.25
 53
0.0
 43
218.294
 44
149.779
 45
0.0
 46
178.308
 79
     2
 49
10.058
 49
-168.25
 53
0.0
 43
180.849
 44
187.223
 45
0.0
 46
178.308
 79
     2
 49
10.058
 49
-168.25
 53
0.0
 43
293.183
 44
165.826
 45
0.0
 46
178.308
 79
     2
 49
10.058
 49
-168.25
 53
0.0
 43
289.617
 44
164.043
 45
0.0
 46
178.308
 79
     2
 49
10.058
 49
-168.25
 53
0.0
 43
305.665
 44
185.44
 45
0.0
 46
178.308
 79
     2
 49
10.058
 49
-168.25
 53
0.0
 43
332.411
 44
160.477
 45
0.0
 46
178.308
 79
     2
 49
10.058
 49
-168.25
 53
0.0
 43
341.326
 44
135.514
 45
0.0
 46
178.308
 79
     2
 49
10.058
 49
-168.25
 53
0.0
 43
248.606
 44
94.50299999999998
 45
0.0
 46
178.308
 79
     2
 49
10.058
 49
-168.25
 53
0.0
 43
228.992
 44
76.672
 45
0.0
 46
178.308
 79
     2
 49
10.058
 49
-168.25
 53
0.0
 43
236.125
 44
30.312
 45
0.0
 46
178.308
 79
     2
 49
10.058
 49
-168.25
 53
0.0
 43
237.908
 44
28.529
 45
0.0
 46
178.308
 79
     2
 49
10.058
 49
-168.25
 53
0.0
 43
211.162
 44
44.57699999999999
 45
0.0
 46
178.308
 79
     2
 49
10.058
 49
-168.25
 53
0.0
 43
204.029
 44
39.228
 45
0.0
 46
178.308
 79
     2
 49
10.058
 49
-168.25
 53
0.0
 43
209.379
 44
58.84199999999999
 45
0.0
 46
178.308
 79
     2
 49
10.058
 49
-168.25
 53
0.0
 43
264.654
 44
155.128
 45
0.0
 46
178.308
 79
     2
 49
10.058
 49
-168.25
 53
0.0
 43
245.04
 44
171.176
 45
0.0
 46
178.308
 79
     2
 49
10.058
 49
-168.25
 53
0.0
 43
250.389
 44
172.959
 45
0.0
 46
178.308
 79
     2
 49
10.058
 49
-168.25
 53
0.0
 43
277.136
 44
44.57699999999999
 45
0.0
 46
178.308
 79
     2
 49
10.058
 49
-168.25
 53
0.0
 43
271.786
 44
46.36
 45
0.0
 46
178.308
 79
     2
 49
10.698
 49
-167.61
 53
0.0
 43
289.617
 44
23.18
 45
0.0
 46
178.308
 79
     2
 49
10.058
 49
-168.25
 53
0.0
 43
287.834
 44
21.397
 45
0.0
 46
178.308
 79
     2
 49
10.058
 49
-168.25
 53
0.0
 43
275.352
 44
114.117
 45
0.0
 46
178.308
 79
     2
 49
10.058
 49
-168.25
 53
0.0
 43
294.966
 44
142.646
 45
0.0
 46
178.308
 79
     2
 49
10.058
 49
-168.25
 53
0.0
 43
302.099
 44
144.429
 45
0.0
 46
178.308
 79
     2
 49
10.058
 49
-168.25
 53
0.0
 43
209.379
 44
117.683
 45
0.0
 46
178.308
 79
     2
 49
10.058
 49
-168.25
 53
0.0
 43
228.992
 44
126.599
 45
0.0
 46
178.308
 79
     2
 49
10.058
 49
-168.25
 53
0.0
 43
225.426
 44
128.382
 45
0.0
 46
178.308
 79
     2
 49
10.058
 49
-168.25
 53
0.0
 43
180.849
 44
114.117
 45
0.0
 46
178.308
 79
     2
 49
10.058
 49
-168.25
 53
0.0
 43
179.0659999999999
 44
115.9
 45
0.0
 46
178.308
 79
     2
 49
10.058
 49
-168.25
 53
0.0
 43
344.893
 44
60.625
 45
0.0
 46
178.308
 79
     2
 49
10.058
 49
-168.25
 53
0.0
 43
328.845
 44
71.323
 45
0.0
 46
178.308
 79
     2
 49
10.058
 49
-168.25
 53
345.964
 43
332.411
 44
73.106
 45
178.3078258838515
 46
0.0007576864650787
 79
     2
 49
10.058
 49
-725.1239999999999
 53
0.0
 43
327.062
 44
73.106
 45
0.0
 46
178.308
 79
     2
 49
10.058
 49
-168.25
 53
315.0
 43
253.956
 44
37.445
 45
178.3082885846869
 46
0.0
 79
     2
 49
10.087
 49
-242.079
 53
319.399
 43
241.474
 44
48.143
 45
1069.85267168476
 46
-891.5348599493915
 79
     2
 49
16.439
 49
-1627.479
 53
319.399
 43
228.992
 44
58.84199999999999
 45
1069.85267168476
 46
-891.5348599493915
 79
     2
 49
16.439
 49
-1627.479
 53
321.34
 43
220.077
 44
65.97399999999999
 45
713.2301932485994
 46
-534.9264135117703
 79
     2
 49
11.417
 49
-1130.311
 53
333.435
 43
209.379
 44
71.323
 45
178.3085326617171
 46
0.0001592666991996
 79
     2
 49
11.961
 49
-386.748
 53
0.0
 43
204.029
 44
71.323
 45
0.0
 46
178.308
 79
     2
 49
10.058
 49
-168.25
 53
57.99499999999999
 43
195.114
 44
57.05899999999999
 45
534.9179393014638
 46
891.5441566016093
 79
     2
 49
16.822
 49
-1665.333
 53
66.03799999999999
 43
187.982
 44
41.011
 45
534.9139154459411
 46
1248.160772403656
 79
     2
 49
17.56099999999999
 49
-1738.569
 53
90.0
 43
187.982
 44
33.879
 45
-178.308
 46
0.0000000000000109
 79
     2
 49
10.058
 49
-168.25
 53
135.0
 43
191.548
 44
30.312
 45
-178.3082885846869
 46
0.0000000000000142
 79
     2
 49
10.058
 49
-242.107
 53
164.055
 43
204.029
 44
26.746
 45
-713.2334605472679
 46
178.303643946973
 79
     2
 49
12.981
 49
-1285.121
 53
165.964
 43
218.294
 44
23.18
 45
-178.3078258838515
 46
-0.0007576864651284
 79
     2
 49
14.704
 49
-720.4789999999998
 53
168.69
 43
236.125
 44
19.614
 45
-178.3076133707022
 46
0.0002101445586646
 79
     2
 49
18.184
 49
-891.0119999999999
 53
167.4709999999999
 43
252.172
 44
16.048
 45
-891.5391124642875
 46
178.3111512115561
 79
     2
 49
16.439
 49
-1627.479
 53
173.66
 43
268.22
 44
14.265
 45
-178.3076009858569
 46
-0.0008175868158631
 79
     2
 49
16.146
 49
-1598.500999999999
 53
180.0
 43
270.003
 44
14.265
 45
-0.0000000000000218
 46
-178.308
 79
     2
 49
10.058
 49
-168.25
 53
225.0
 43
273.569
 44
17.831
 45
0.0000000000000142
 46
-178.3082885846869
 79
     2
 49
10.058
 49
-242.107
 53
270.0
 43
273.569
 44
21.397
 45
178.308
 46
0.0000000000000109
 79
     2
 49
10.058
 49
-168.25
 53
326.31
 43
268.22
 44
24.963
 45
356.616411597562
 46
-178.3074030860138
 79
     2
 49
10.058
 49
-632.8399999999999
 53
323.13
 43
261.088
 44
30.312
 45
534.9237629346099
 46
-356.6167555974862
 79
     2
 49
10.058
 49
-881.4819999999999
 53
324.462
 43
205.812
 44
78.45600000000001
 45
534.9217340027831
 46
-356.6186795043913
 79
     2
 49
15.339
 49
-1518.525
 53
281.31
 43
204.029
 44
87.37100000000001
 45
178.3088461835183
 46
-713.2322044991397
 79
     2
 49
10.058
 49
-899.1379999999999
 53
288.435
 43
202.246
 44
92.72
 45
178.3085066789661
 46
-356.6162170259747
 79
     2
 49
10.058
 49
-553.8009999999998
 53
255.964
 43
204.029
 44
99.852
 45
0.0007576864650858
 46
-178.3078258838515
 79
     2
 49
10.058
 49
-725.1239999999999
 53
185.711
 43
221.86
 44
101.636
 45
-1604.770634251286
 46
-178.3190749996339
 79
     2
 49
17.92
 49
-1774.053
 53
180.0
 43
245.04
 44
101.636
 45
-0.0000000000000218
 46
-178.308
 79
     2
 49
23.18
 49
-155.128
 53
180.0
 43
250.389
 44
101.636
 45
-0.0000000000000218
 46
-178.308
 79
     2
 49
10.058
 49
-168.25
 53
161.565
 43
255.739
 44
99.852
 45
-178.3081881461831
 46
0.0001592663915062
 79
     2
 49
10.058
 49
-553.8009999999998
 53
116.565
 43
257.522
 44
96.286
 45
-178.3079261822213
 46
178.3077975008258
 79
     2
 49
10.058
 49
-388.65
 53
90.0
 43
257.522
 44
87.37100000000001
 45
-178.308
 46
0.0000000000000109
 79
     2
 49
10.058
 49
-168.25
 53
68.199
 43
253.956
 44
78.45600000000001
 45
178.3039974959659
 46
534.9249216422418
 79
     2
 49
10.058
 49
-950.1599999999999
 53
59.036
 43
248.606
 44
69.54
 45
178.3089373420968
 46
356.6151152432159
 79
     2
 49
10.397
 49
-1029.308
 53
63.43499999999999
 43
243.257
 44
58.84199999999999
 45
-0.0001592666991996
 46
178.3085326617171
 79
     2
 49
11.961
 49
-386.748
 53
26.565
 43
239.691
 44
57.05899999999999
 45
178.3077975008258
 46
178.3079261822213
 79
     2
 49
10.058
 49
-388.65
 53
0.0
 43
236.125
 44
57.05899999999999
 45
0.0
 46
178.308
 79
     2
 49
10.058
 49
-168.25
 53
333.435
 43
232.559
 44
58.84199999999999
 45
178.3085326617171
 46
0.0001592666991996
 79
     2
 49
10.058
 49
-388.65
 53
321.34
 43
223.643
 44
65.97399999999999
 45
713.2301932485994
 46
-534.9264135117703
 79
     2
 49
11.417
 49
-1130.311
 53
326.31
 43
218.294
 44
69.54
 45
356.616411597562
 46
-178.3074030860138
 79
     2
 49
10.058
 49
-632.8399999999999
 53
206.565
 43
250.389
 44
105.202
 45
-178.3077975008258
 46
-178.3079261822213
 79
     2
 49
10.058
 49
-388.65
 53
243.435
 43
252.172
 44
108.768
 45
0.0001592666992138
 46
-178.3085326617171
 79
     2
 49
10.058
 49
-388.65
 53
278.746
 43
248.606
 44
131.9479999999999
 45
178.3055348009225
 46
-1069.848927629204
 79
     2
 49
23.453
 49
-2321.823
 53
288.435
 43
246.823
 44
137.297
 45
178.3085066789661
 46
-356.6162170259747
 79
     2
 49
10.058
 49
-553.8009999999998
 53
315.0
 43
243.257
 44
140.863
 45
178.3082885846869
 46
0.0
 79
     2
 49
10.058
 49
-242.107
 53
0.0
 43
236.125
 44
140.863
 45
0.0
 46
178.308
 79
     2
 49
10.058
 49
-168.25
 53
14.036
 43
228.992
 44
139.08
 45
534.9252054815504
 46
178.3057953559588
 79
     2
 49
10.058
 49
-725.1239999999999
 53
10.008
 43
198.68
 44
133.731
 45
1961.387611391722
 46
356.6165383280436
 79
     2
 49
30.781
 49
-3047.293
 53
21.801
 43
189.765
 44
130.165
 45
356.6176581971102
 46
178.3056432281633
 79
     2
 49
10.058
 49
-950.1599999999998
 53
45.0
 43
187.982
 44
128.382
 45
0.0
 46
178.3082885846869
 79
     2
 49
10.058
 49
-242.107
 53
107.103
 43
195.114
 44
105.202
 45
-178.3100890097673
 46
534.9233028082893
 79
     2
 49
24.253
 49
-2400.997999999999
 53
116.565
 43
196.897
 44
101.636
 45
-178.3079261822213
 46
178.3077975008258
 79
     2
 49
10.058
 49
-388.65
 53
180.0
 43
200.463
 44
101.636
 45
-0.0000000000000218
 46
-178.308
 79
     2
 49
10.058
 49
-168.25
 53
189.462
 43
211.162
 44
103.419
 45
-891.5406564514453
 46
-178.303278767178
 79
     2
 49
10.846
 49
-1073.759
 53
194.036
 43
218.294
 44
105.202
 45
-534.9252054815504
 46
-178.3057953559587
 79
     2
 49
10.058
 49
-725.1239999999999
 53
180.0
 43
228.992
 44
105.202
 45
-0.0000000000000218
 46
-178.308
 79
     2
 49
10.698
 49
-167.61
 53
174.289
 43
246.823
 44
103.419
 45
-178.3078783748821
 46
0.0015646914908629
 79
     2
 49
17.92
 49
-1774.053
 53
225.0
 43
253.956
 44
130.165
 45
0.0000000000000142
 46
-178.3082885846869
 79
     2
 49
10.058
 49
-242.107
 53
201.801
 43
262.871
 44
133.731
 45
-356.6176581971102
 46
-178.3056432281633
 79
     2
 49
10.058
 49
-950.1599999999999
 53
206.565
 43
277.136
 44
140.863
 45
-178.3077975008258
 46
-178.3079261822213
 79
     2
 49
15.948
 49
-382.76
 53
212.471
 43
296.749
 44
153.345
 45
-534.9248398328235
 46
-356.6144524760994
 79
     2
 49
23.249
 49
-2301.603
 53
220.601
 43
309.231
 44
164.043
 45
-178.3091845246248
 46
-178.3070252210027
 79
     2
 49
16.439
 49
-1627.479
 53
206.565
 43
316.363
 44
167.61
 45
-178.3077975008258
 46
-178.3079261822213
 79
     2
 49
10.058
 49
-388.65
 53
161.565
 43
321.713
 44
165.826
 45
-178.3081881461831
 46
0.0001592663915062
 79
     2
 49
10.058
 49
-553.8009999999998
 53
98.13
 43
323.496
 44
153.345
 45
-178.3065188112684
 46
1069.848211561998
 79
     2
 49
12.608
 49
-1248.22
 53
90.0
 43
323.496
 44
142.646
 45
-178.308
 46
0.0000000000000109
 79
     2
 49
10.698
 49
-167.61
 53
59.036
 43
318.1459999999999
 44
133.731
 45
178.3089373420968
 46
356.6151152432159
 79
     2
 49
10.397
 49
-1029.308
 53
41.186
 43
303.882
 44
121.249
 45
178.3075752435292
 46
178.3083232375123
 79
     2
 49
18.954
 49
-1876.486
 53
41.63399999999998
 43
287.834
 44
106.985
 45
178.306014448504
 46
178.3093799425309
 79
     2
 49
21.471
 49
-2125.641
 53
41.63399999999998
 43
271.786
 44
92.72
 45
178.306014448504
 46
178.3093799425309
 79
     2
 49
21.471
 49
-2125.641
 53
18.435
 43
266.437
 44
90.93700000000001
 45
356.6162170259747
 46
178.3085066789661
 79
     2
 49
10.058
 49
-553.8009999999998
 53
333.435
 43
259.305
 44
94.50299999999998
 45
178.3085326617171
 46
0.0001592666991996
 79
     2
 49
10.058
 49
-388.65
 53
291.801
 43
255.739
 44
103.419
 45
178.3056432281633
 46
-356.6176581971102
 79
     2
 49
10.058
 49
-950.1599999999999
 53
281.31
 43
253.956
 44
112.334
 45
178.3088461835183
 46
-713.2322044991397
 79
     2
 49
10.058
 49
-899.1379999999999
 53
284.036
 43
252.172
 44
119.466
 45
178.3057953559589
 46
-534.9252054815504
 79
     2
 49
10.058
 49
-725.1239999999999
 53
284.036
 43
250.389
 44
126.599
 45
178.3057953559589
 46
-534.9252054815504
 79
     2
 49
10.058
 49
-725.1239999999999
 53
270.0
 43
253.956
 44
76.672
 45
178.308
 46
0.0000000000000109
 79
     2
 49
10.058
 49
-168.25
 53
243.435
 43
257.522
 44
83.80500000000001
 45
0.0001592666992138
 46
-178.3085326617171
 79
     2
 49
10.058
 49
-388.65
 53
218.66
 43
266.437
 44
90.93700000000001
 45
-178.3072039143622
 46
-178.3083973632258
 79
     2
 49
11.417
 49
-1130.311
 53
198.435
 43
271.786
 44
92.72
 45
-356.6162170259747
 46
-178.3085066789661
 79
     2
 49
10.058
 49
-553.8009999999998
 53
216.87
 43
278.919
 44
98.069
 45
-178.3072814669112
 46
-178.3085185314478
 79
     2
 49
10.058
 49
-881.4819999999999
 53
213.69
 43
289.617
 44
105.202
 45
-178.3083108718378
 46
-178.308167931343
 79
     2
 49
12.858
 49
-630.0409999999999
 53
180.0
 43
294.966
 44
105.202
 45
-0.0000000000000218
 46
-178.308
 79
     2
 49
10.058
 49
-168.25
 53
135.0
 43
300.316
 44
99.852
 45
-178.3082885846869
 46
0.0000000000000142
 79
     2
 49
10.058
 49
-242.107
 53
116.565
 43
303.882
 44
92.72
 45
-178.3079261822213
 46
178.3077975008258
 79
     2
 49
10.058
 49
-388.65
 53
78.68999999999999
 43
302.099
 44
83.80500000000001
 45
0.0002101445586149
 46
178.3076133707022
 79
     2
 49
10.058
 49
-899.1379999999999
 53
38.66
 43
293.183
 44
76.672
 45
178.3072039143621
 46
178.3083973632258
 79
     2
 49
11.417
 49
-1130.311
 53
8.13
 43
280.702
 44
74.889
 45
1069.848211561998
 46
178.3065188112685
 79
     2
 49
12.608
 49
-1248.22
 53
8.13
 43
268.22
 44
73.106
 45
1069.848211561998
 46
178.3065188112685
 79
     2
 49
12.608
 49
-1248.22
 53
9.461999999999997
 43
257.522
 44
71.323
 45
891.5406564514453
 46
178.3032787671776
 79
     2
 49
10.846
 49
-1073.759
 53
315.0
 43
253.956
 44
74.889
 45
178.3082885846869
 46
0.0
 79
     2
 49
10.058
 49
-242.107
 53
296.565
 43
294.966
 44
108.768
 45
178.3079261822213
 46
-178.3077975008258
 79
     2
 49
10.058
 49
-388.65
 53
243.435
 43
296.749
 44
112.334
 45
0.0001592666992138
 46
-178.3085326617171
 79
     2
 49
10.058
 49
-388.65
 53
233.13
 43
302.099
 44
119.466
 45
-356.6167555974861
 46
-534.9237629346099
 79
     2
 49
10.058
 49
-881.4819999999999
 53
206.565
 43
309.231
 44
123.033
 45
-178.3077975008258
 46
-178.3079261822213
 79
     2
 49
10.058
 49
-388.65
 53
180.0
 43
314.58
 44
123.033
 45
-0.0000000000000218
 46
-178.308
 79
     2
 49
10.058
 49
-168.25
 53
150.255
 43
327.062
 44
115.9
 45
-356.6154930119763
 46
178.3091041557471
 79
     2
 49
14.37599999999999
 49
-1423.188999999999
 53
158.199
 43
335.977
 44
112.334
 45
-534.9249216422418
 46
178.303997495966
 79
     2
 49
10.058
 49
-950.1599999999999
 53
153.435
 43
350.242
 44
105.202
 45
-178.3085326617171
 46
-0.0001592666991854
 79
     2
 49
15.948
 49
-382.76
 53
143.13
 43
357.374
 44
99.852
 45
-534.9237629346098
 46
356.6167555974863
 79
     2
 49
10.058
 49
-881.4819999999999
 53
116.565
 43
360.94
 44
92.72
 45
-178.3079261822213
 46
178.3077975008258
 79
     2
 49
10.058
 49
-388.65
 53
63.43499999999999
 43
359.157
 44
89.15399999999999
 45
-0.0001592666991996
 46
178.3085326617171
 79
     2
 49
10.058
 49
-388.65
 53
26.565
 43
355.591
 44
87.37100000000001
 45
178.3077975008258
 46
178.3079261822213
 79
     2
 49
10.058
 49
-388.65
 53
350.538
 43
344.893
 44
89.15399999999999
 45
178.3081280206458
 46
0.001331529944931
 79
     2
 49
10.846
 49
-1073.759
 53
344.055
 43
332.411
 44
92.72
 45
713.2334605472679
 46
-178.3036439469729
 79
     2
 49
12.981
 49
-1285.121
 53
344.055
 43
319.929
 44
96.286
 45
713.2334605472679
 46
-178.3036439469729
 79
     2
 49
12.981
 49
-1285.121
 53
343.301
 43
302.099
 44
101.636
 45
1248.157116795305
 46
-356.6103590127904
 79
     2
 49
18.61599999999999
 49
-1842.974
 53
326.31
 43
296.749
 44
105.202
 45
356.616411597562
 46
-178.3074030860138
 79
     2
 49
10.058
 49
-632.8399999999999
 53
213.69
 43
334.194
 44
144.429
 45
-178.3083108718378
 46
-178.308167931343
 79
     2
 49
12.858
 49
-630.0409999999999
 53
198.435
 43
339.543
 44
146.213
 45
-356.6162170259747
 46
-178.3085066789661
 79
     2
 49
10.058
 49
-553.8009999999998
 53
180.0
 43
343.11
 44
146.213
 45
-0.0000000000000218
 46
-178.308
 79
     2
 49
10.058
 49
-168.25
 53
119.745
 43
350.242
 44
133.731
 45
-534.9254546402301
 46
891.5389819485984
 79
     2
 49
14.37599999999999
 49
-1423.188999999999
 53
90.0
 43
350.242
 44
124.816
 45
-178.308
 46
0.0000000000000109
 79
     2
 49
10.058
 49
-168.25
 53
78.68999999999999
 43
348.459
 44
115.9
 45
0.0002101445586149
 46
178.3076133707022
 79
     2
 49
10.058
 49
-899.1379999999999
 53
45.0
 43
344.893
 44
112.334
 45
0.0
 46
178.3082885846869
 79
     2
 49
10.058
 49
-242.107
 53
0.0
 43
339.543
 44
112.334
 45
0.0
 46
178.308
 79
     2
 49
10.058
 49
-168.25
 53
338.199
 43
330.628
 44
115.9
 45
534.9249216422418
 46
-178.3039974959659
 79
     2
 49
10.058
 49
-950.1599999999999
 53
333.435
 43
323.496
 44
119.466
 45
178.3085326617171
 46
0.0001592666991996
 79
     2
 49
10.058
 49
-388.65
 53
329.036
 43
314.58
 44
124.816
 45
356.6151152432159
 46
-178.3089373420969
 79
     2
 49
10.397
 49
-1029.308
 53
270.0
 43
314.58
 44
128.382
 45
178.308
 46
0.0000000000000109
 79
     2
 49
10.058
 49
-168.25
 53
213.69
 43
319.929
 44
131.9479999999999
 45
-178.3083108718378
 46
-178.308167931343
 79
     2
 49
10.058
 49
-632.84
 53
236.31
 43
323.496
 44
137.297
 45
-178.3074030860138
 46
-356.616411597562
 79
     2
 49
10.058
 49
-632.84
 53
80.538
 43
173.717
 44
123.033
 45
-0.0013315299449062
 46
178.3081280206458
 79
     2
 49
10.846
 49
-1073.759
 53
74.055
 43
170.151
 44
110.551
 45
178.3036439469727
 46
713.2334605472679
 79
     2
 49
12.981
 49
-1285.121
 53
90.0
 43
170.151
 44
106.985
 45
-178.308
 46
0.0000000000000109
 79
     2
 49
10.058
 49
-168.25
 53
153.435
 43
177.283
 44
103.419
 45
-178.3085326617171
 46
-0.0001592666991854
 79
     2
 49
10.058
 49
-388.65
 53
171.87
 43
189.765
 44
101.636
 45
-178.3081471622883
 46
-0.0007427967784537
 79
     2
 49
12.608
 49
-1248.22
 53
206.565
 43
193.331
 44
103.419
 45
-178.3077975008258
 46
-178.3079261822213
 79
     2
 49
10.058
 49
-388.65
 53
284.036
 43
189.765
 44
117.683
 45
178.3057953559589
 46
-534.9252054815504
 79
     2
 49
14.704
 49
-720.4789999999999
 53
291.801
 43
186.1979999999999
 44
126.599
 45
178.3056432281633
 46
-356.6176581971102
 79
     2
 49
10.058
 49
-950.1599999999999
 53
288.435
 43
184.415
 44
131.9479999999999
 45
178.3085066789661
 46
-356.6162170259747
 79
     2
 49
10.058
 49
-553.8009999999998
 53
333.435
 43
180.849
 44
133.731
 45
178.3085326617171
 46
0.0001592666991996
 79
     2
 49
10.058
 49
-388.65
 53
0.0
 43
175.5
 44
133.731
 45
0.0
 46
178.308
 79
     2
 49
10.058
 49
-168.25
 53
198.435
 43
189.765
 44
99.852
 45
-356.6162170259747
 46
-178.3085066789661
 79
     2
 49
10.058
 49
-553.8009999999998
 53
180.0
 43
196.897
 44
99.852
 45
-0.0000000000000218
 46
-178.308
 79
     2
 49
10.058
 49
-168.25
 53
153.435
 43
200.463
 44
98.069
 45
-178.3085326617171
 46
-0.0001592666991854
 79
     2
 49
10.058
 49
-388.65
 53
101.31
 43
204.029
 44
80.23899999999999
 45
-178.3088461835184
 46
713.2322044991397
 79
     2
 49
18.184
 49
-891.0119999999999
 53
78.68999999999999
 43
202.246
 44
71.323
 45
0.0002101445586149
 46
178.3076133707022
 79
     2
 49
10.058
 49
-899.1379999999999
 53
45.0
 43
200.463
 44
69.54
 45
0.0
 46
178.3082885846869
 79
     2
 49
10.058
 49
-242.107
 53
0.0
 43
198.68
 44
69.54
 45
0.0
 46
178.308
 79
     2
 49
10.058
 49
-168.25
 53
326.31
 43
193.331
 44
73.106
 45
356.616411597562
 46
-178.3074030860138
 79
     2
 49
10.058
 49
-632.8399999999999
 53
306.87
 43
187.982
 44
80.23899999999999
 45
178.3085185314478
 46
-178.3072814669113
 79
     2
 49
10.058
 49
-881.4819999999999
 53
285.945
 43
184.415
 44
92.72
 45
178.303777132609
 46
-534.9251630398824
 79
     2
 49
12.981
 49
-1285.121
 53
270.0
 43
184.415
 44
98.069
 45
178.308
 46
0.0000000000000109
 79
     2
 49
10.058
 49
-168.25
 53
0.0
 43
307.448
 44
96.286
 45
0.0
 46
178.308
 79
     2
 49
10.058
 49
-168.25
 53
63.43499999999999
 43
305.665
 44
92.72
 45
-0.0001592666991996
 46
178.3085326617171
 79
     2
 49
10.058
 49
-388.65
 53
71.565
 43
303.882
 44
87.37100000000001
 45
0.0001592663914991
 46
178.3081881461831
 79
     2
 49
10.058
 49
-553.8009999999998
 53
68.199
 43
300.316
 44
78.45600000000001
 45
178.3039974959659
 46
534.9249216422418
 79
     2
 49
10.058
 49
-950.1599999999999
 53
90.0
 43
300.316
 44
74.889
 45
-178.308
 46
0.0000000000000109
 79
     2
 49
10.058
 49
-168.25
 53
135.0
 43
302.099
 44
73.106
 45
-178.3082885846869
 46
0.0000000000000142
 79
     2
 49
10.058
 49
-242.107
 53
135.0
 43
305.665
 44
69.54
 45
-178.3082885846869
 46
0.0000000000000142
 79
     2
 49
10.058
 49
-242.107
 53
141.34
 43
314.58
 44
62.408
 45
-713.2301932485994
 46
534.9264135117701
 79
     2
 49
11.417
 49
-1130.311
 53
108.435
 43
318.1459999999999
 44
51.70899999999999
 45
-178.308506678966
 46
356.6162170259747
 79
     2
 49
11.277
 49
-552.582
 53
135.0
 43
325.279
 44
44.57699999999999
 45
-178.3082885846869
 46
0.0000000000000142
 79
     2
 49
10.087
 49
-242.079
 53
167.4709999999999
 43
341.326
 44
41.011
 45
-891.5391124642875
 46
178.3111512115561
 79
     2
 49
16.439
 49
-1627.479
 53
168.69
 43
350.242
 44
39.228
 45
-178.3076133707022
 46
0.0002101445586646
 79
     2
 49
10.058
 49
-899.1380000000001
 53
191.31
 43
359.157
 44
41.011
 45
-713.2322044991397
 46
-178.3088461835185
 79
     2
 49
10.058
 49
-899.1379999999999
 53
216.87
 43
366.29
 44
46.36
 45
-178.3072814669112
 46
-178.3085185314478
 79
     2
 49
10.058
 49
-881.4819999999999
 53
248.199
 43
369.856
 44
55.27499999999999
 45
-178.3039974959659
 46
-534.9249216422418
 79
     2
 49
10.058
 49
-950.1599999999999
 53
260.538
 43
371.639
 44
65.97399999999999
 45
0.0013315299449239
 46
-178.3081280206458
 79
     2
 49
10.846
 49
-1073.759
 53
270.0
 43
371.639
 44
71.323
 45
178.308
 46
0.0000000000000109
 79
     2
 49
10.058
 49
-168.25
 53
315.0
 43
364.506
 44
78.45600000000001
 45
178.3082885846869
 46
0.0
 79
     2
 49
10.087
 49
-242.079
 53
296.565
 43
362.723
 44
82.02200000000001
 45
178.3079261822213
 46
-178.3077975008258
 79
     2
 49
10.058
 49
-388.65
 53
326.31
 43
357.374
 44
85.58799999999999
 45
356.616411597562
 46
-178.3074030860138
 79
     2
 49
10.058
 49
-632.8399999999999
 53
345.964
 43
343.11
 44
89.15399999999999
 45
178.3078258838515
 46
0.0007576864650787
 79
     2
 49
14.704
 49
-720.4789999999999
 53
347.471
 43
327.062
 44
92.72
 45
891.5391124642876
 46
-178.3111512115557
 79
     2
 49
16.439
 49
-1627.479
 53
344.055
 43
314.58
 44
96.286
 45
713.2334605472679
 46
-178.3036439469729
 79
     2
 49
12.981
 49
-1285.121
 53
270.0
 43
286.051
 44
153.345
 45
178.308
 46
0.0000000000000109
 79
     2
 49
10.058
 49
-168.25
 53
282.529
 43
282.485
 44
169.393
 45
178.3101189298526
 46
-713.231170288583
 79
     2
 49
16.439
 49
-1627.479
 53
303.69
 43
275.352
 44
180.091
 45
178.308167931343
 46
-178.3083108718378
 79
     2
 49
12.858
 49
-630.0409999999999
 53
319.399
 43
262.871
 44
190.79
 45
1069.85267168476
 46
-891.5348599493915
 79
     2
 49
16.439
 49
-1627.479
 53
341.565
 43
257.522
 44
192.573
 45
178.3081881461831
 46
-0.0001592663914849
 79
     2
 49
10.058
 49
-553.8009999999998
 53
352.875
 43
243.257
 44
194.356
 45
178.3078691950997
 46
-0.0003212254502536
 79
     2
 49
14.376
 49
-1423.188999999999
 53
345.964
 43
236.125
 44
196.139
 45
178.3078258838515
 46
0.0007576864650787
 79
     2
 49
10.058
 49
-725.1239999999999
 53
26.565
 43
228.992
 44
192.573
 45
178.3077975008258
 46
178.3079261822213
 79
     2
 49
10.058
 49
-388.65
 53
36.87
 43
221.86
 44
187.223
 45
178.3072814669113
 46
178.3085185314478
 79
     2
 49
10.058
 49
-881.4819999999999
 53
71.565
 43
220.077
 44
181.874
 45
0.0001592663914991
 46
178.3081881461831
 79
     2
 49
10.058
 49
-553.8009999999998
 53
108.435
 43
221.86
 44
176.525
 45
-178.308506678966
 46
356.6162170259747
 79
     2
 49
10.058
 49
-553.8009999999998
 53
135.0
 43
227.209
 44
171.176
 45
-178.3082885846869
 46
0.0000000000000142
 79
     2
 49
10.058
 49
-242.107
 53
141.34
 43
236.125
 44
164.043
 45
-713.2301932485994
 46
534.9264135117701
 79
     2
 49
11.417
 49
-1130.311
 53
126.87
 43
241.474
 44
156.911
 45
-178.3085185314477
 46
178.3072814669113
 79
     2
 49
10.058
 49
-881.4819999999999
 53
110.556
 43
246.823
 44
142.646
 45
-356.6148937898033
 46
891.540269852847
 79
     2
 49
15.235
 49
-1508.23
 53
116.565
 43
248.606
 44
139.08
 45
-178.3079261822213
 46
178.3077975008258
 79
     2
 49
10.058
 49
-388.65
 53
123.69
 43
252.172
 44
133.731
 45
-178.308167931343
 46
178.3083108718378
 79
     2
 49
10.058
 49
-632.84
 53
135.0
 43
253.956
 44
131.9479999999999
 45
-178.3082885846869
 46
0.0000000000000142
 79
     2
 49
10.058
 49
-242.107
 53
198.435
 43
264.654
 44
135.514
 45
-356.6162170259747
 46
-178.3085066789661
 79
     2
 49
11.277
 49
-552.5819999999998
 53
206.565
 43
271.786
 44
139.08
 45
-178.3077975008258
 46
-178.3079261822213
 79
     2
 49
10.058
 49
-388.65
 53
210.964
 43
280.702
 44
144.429
 45
-534.9222940158908
 46
-356.618660484525
 79
     2
 49
10.397
 49
-1029.308
 53
213.69
 43
286.051
 44
147.996
 45
-178.3083108718378
 46
-178.308167931343
 79
     2
 49
10.058
 49
-632.84
 53
278.13
 43
286.051
 44
164.043
 45
178.3065188112683
 46
-1069.848211561998
 79
     2
 49
12.608
 49
-1248.22
 53
284.036
 43
284.268
 44
171.176
 45
178.3057953559589
 46
-534.9252054815504
 79
     2
 49
10.058
 49
-725.1239999999999
 53
288.435
 43
282.485
 44
176.525
 45
178.3085066789661
 46
-356.6162170259747
 79
     2
 49
10.058
 49
-553.8009999999998
 53
236.31
 43
286.051
 44
181.874
 45
-178.3074030860138
 46
-356.616411597562
 79
     2
 49
10.058
 49
-632.84
 53
213.69
 43
291.4
 44
185.44
 45
-178.3083108718378
 46
-178.308167931343
 79
     2
 49
10.058
 49
-632.84
 53
225.0
 43
296.749
 44
190.79
 45
0.0000000000000142
 46
-178.3082885846869
 79
     2
 49
10.058
 49
-242.107
 53
213.69
 43
302.099
 44
194.356
 45
-178.3083108718378
 46
-178.308167931343
 79
     2
 49
10.058
 49
-632.84
 53
180.0
 43
312.797
 44
194.356
 45
-0.0000000000000218
 46
-178.308
 79
     2
 49
10.698
 49
-167.61
 53
135.0
 43
316.363
 44
190.79
 45
-178.3082885846869
 46
0.0000000000000142
 79
     2
 49
10.058
 49
-242.107
 53
99.46199999999997
 43
318.1459999999999
 44
180.091
 45
-178.3032787671776
 46
891.5406564514453
 79
     2
 49
10.846
 49
-1073.759
 53
90.0
 43
318.1459999999999
 44
174.742
 45
-178.308
 46
0.0000000000000109
 79
     2
 49
10.058
 49
-168.25
 53
63.43499999999999
 43
314.58
 44
167.61
 45
-0.0001592666991996
 46
178.3085326617171
 79
     2
 49
10.058
 49
-388.65
 53
26.565
 43
307.448
 44
164.043
 45
178.3077975008258
 46
178.3079261822213
 79
     2
 49
10.058
 49
-388.65
 53
45.0
 43
300.316
 44
156.911
 45
0.0
 46
178.3082885846869
 79
     2
 49
10.087
 49
-242.079
 53
33.69
 43
294.966
 44
153.345
 45
178.3083108718378
 46
178.308167931343
 79
     2
 49
10.058
 49
-632.8399999999999
 53
26.565
 43
291.4
 44
151.562
 45
178.3077975008258
 46
178.3079261822213
 79
     2
 49
10.058
 49
-388.65
 53
0.0
 43
287.834
 44
151.562
 45
0.0
 46
178.308
 79
     2
 49
10.058
 49
-168.25
 53
288.435
 43
211.162
 44
142.646
 45
178.3085066789661
 46
-356.6162170259747
 79
     2
 49
10.058
 49
-553.8009999999998
 53
308.66
 43
204.029
 44
151.562
 45
178.3083973632258
 46
-178.3072039143622
 79
     2
 49
11.417
 49
-1130.311
 53
320.194
 43
193.331
 44
160.477
 45
891.534661330454
 46
-713.2386743204497
 79
     2
 49
13.926
 49
-1378.704
 53
324.462
 43
180.849
 44
169.393
 45
534.9217340027831
 46
-356.6186795043913
 79
     2
 49
15.339
 49
-1518.525
 53
315.0
 43
170.151
 44
180.091
 45
178.3082885846869
 46
0.0
 79
     2
 49
15.13
 49
-237.036
 53
296.565
 43
163.018
 44
194.356
 45
178.3079261822213
 46
-178.3077975008258
 79
     2
 49
15.948
 49
-382.76
 53
270.0
 43
163.018
 44
199.705
 45
178.308
 46
0.0000000000000109
 79
     2
 49
10.058
 49
-168.25
 53
243.435
 43
164.802
 44
203.271
 45
0.0001592666992138
 46
-178.3085326617171
 79
     2
 49
10.058
 49
-388.65
 53
191.31
 43
173.717
 44
205.054
 45
-713.2322044991397
 46
-178.3088461835185
 79
     2
 49
10.058
 49
-899.1379999999999
 53
180.0
 43
186.1979999999999
 44
205.054
 45
-0.0000000000000218
 46
-178.308
 79
     2
 49
12.482
 49
-165.826
 53
180.0
 43
195.114
 44
205.054
 45
-0.0000000000000218
 46
-178.308
 79
     2
 49
10.058
 49
-168.25
 53
161.565
 43
200.463
 44
203.271
 45
-178.3081881461831
 46
0.0001592663915062
 79
     2
 49
10.058
 49
-553.8009999999998
 53
129.806
 43
209.379
 44
192.573
 45
-178.3093348832805
 46
178.3066653086252
 79
     2
 49
13.926
 49
-1378.704
 53
125.538
 43
218.294
 44
180.091
 45
-534.928099130925
 46
713.2289156681572
 79
     2
 49
15.339
 49
-1518.525
 53
129.806
 43
227.209
 44
169.393
 45
-178.3093348832805
 46
178.3066653086252
 79
     2
 49
13.926
 49
-1378.704
 53
141.34
 43
236.125
 44
162.26
 45
-713.2301932485994
 46
534.9264135117701
 79
     2
 49
11.417
 49
-1130.311
 53
123.69
 43
239.691
 44
156.911
 45
-178.308167931343
 46
178.3083108718378
 79
     2
 49
10.058
 49
-632.84
 53
108.435
 43
241.474
 44
151.562
 45
-178.308506678966
 46
356.6162170259747
 79
     2
 49
10.058
 49
-553.8009999999998
 53
90.0
 43
241.474
 44
146.213
 45
-178.308
 46
0.0000000000000109
 79
     2
 49
10.058
 49
-168.25
 53
45.0
 43
237.908
 44
142.646
 45
0.0
 46
178.3082885846869
 79
     2
 49
10.058
 49
-242.107
 53
18.435
 43
232.559
 44
140.863
 45
356.6162170259747
 46
178.3085066789661
 79
     2
 49
10.058
 49
-553.8009999999998
 53
11.31
 43
223.643
 44
139.08
 45
713.2322044991397
 46
178.3088461835183
 79
     2
 49
10.058
 49
-899.1379999999999
 53
9.461999999999997
 43
212.945
 44
137.297
 45
891.5406564514453
 46
178.3032787671776
 79
     2
 49
10.846
 49
-1073.759
 53
270.0
 43
166.585
 44
153.345
 45
178.308
 46
0.0000000000000109
 79
     2
 49
10.058
 49
-168.25
 53
225.0
 43
171.934
 44
158.694
 45
0.0000000000000142
 46
-178.3082885846869
 79
     2
 49
10.058
 49
-242.107
 53
191.31
 43
180.849
 44
160.477
 45
-713.2322044991397
 46
-178.3088461835185
 79
     2
 49
10.058
 49
-899.1379999999999
 53
180.0
 43
187.982
 44
160.477
 45
-0.0000000000000218
 46
-178.308
 79
     2
 49
10.058
 49
-168.25
 53
153.435
 43
195.114
 44
156.911
 45
-178.3085326617171
 46
-0.0001592666991854
 79
     2
 49
10.058
 49
-388.65
 53
143.13
 43
202.246
 44
151.562
 45
-534.9237629346098
 46
356.6167555974863
 79
     2
 49
10.058
 49
-881.4819999999999
 53
126.87
 43
207.595
 44
144.429
 45
-178.3085185314477
 46
178.3072814669113
 79
     2
 49
10.058
 49
-881.4819999999999
 53
108.435
 43
209.379
 44
139.08
 45
-178.308506678966
 46
356.6162170259747
 79
     2
 49
10.058
 49
-553.8009999999998
 53
45.0
 43
207.595
 44
137.297
 45
0.0
 46
178.3082885846869
 79
     2
 49
10.058
 49
-242.107
 53
14.036
 43
200.463
 44
135.514
 45
534.9252054815504
 46
178.3057953559588
 79
     2
 49
10.058
 49
-725.1239999999999
 53
14.036
 43
193.331
 44
133.731
 45
534.9252054815504
 46
178.3057953559588
 79
     2
 49
10.058
 49
-725.1239999999999
 53
0.0
 43
184.415
 44
133.731
 45
0.0
 46
178.308
 79
     2
 49
10.058
 49
-168.25
 53
348.69
 43
175.5
 44
135.514
 45
178.3076133707022
 46
-0.000210144558622
 79
     2
 49
10.058
 49
-899.1380000000001
 53
333.435
 43
171.934
 44
137.297
 45
178.3085326617171
 46
0.0001592666991996
 79
     2
 49
10.058
 49
-388.65
 53
303.69
 43
168.368
 44
142.646
 45
178.308167931343
 46
-178.3083108718378
 79
     2
 49
10.058
 49
-632.84
 53
296.565
 43
166.585
 44
146.213
 45
178.3079261822213
 46
-178.3077975008258
 79
     2
 49
10.058
 49
-388.65
 53
270.0
 43
325.279
 44
164.043
 45
178.308
 46
0.0000000000000109
 79
     2
 49
14.265
 49
-164.043
 53
279.462
 43
323.496
 44
174.742
 45
178.3032787671777
 46
-891.5406564514453
 79
     2
 49
10.846
 49
-1073.758999999999
 53
236.31
 43
327.062
 44
180.091
 45
-178.3074030860138
 46
-356.616411597562
 79
     2
 49
10.058
 49
-632.84
 53
206.565
 43
330.628
 44
181.874
 45
-178.3077975008258
 46
-178.3079261822213
 79
     2
 49
10.058
 49
-388.65
 53
171.87
 43
343.11
 44
180.091
 45
-178.3081471622883
 46
-0.0007427967784537
 79
     2
 49
12.608
 49
-1248.22
 53
153.435
 43
350.242
 44
176.525
 45
-178.3085326617171
 46
-0.0001592666991854
 79
     2
 49
10.058
 49
-388.65
 53
135.0
 43
355.591
 44
171.176
 45
-178.3082885846869
 46
0.0000000000000142
 79
     2
 49
10.058
 49
-242.107
 53
116.565
 43
357.374
 44
167.61
 45
-178.3079261822213
 46
178.3077975008258
 79
     2
 49
10.058
 49
-388.65
 53
63.43499999999999
 43
355.591
 44
164.043
 45
-0.0001592666991996
 46
178.3085326617171
 79
     2
 49
10.058
 49
-388.65
 53
33.69
 43
350.242
 44
160.477
 45
178.3083108718378
 46
178.308167931343
 79
     2
 49
10.058
 49
-632.8399999999999
 53
45.0
 43
344.893
 44
155.128
 45
0.0
 46
178.3082885846869
 79
     2
 49
10.058
 49
-242.107
 53
71.565
 43
343.11
 44
149.779
 45
0.0001592663914991
 46
178.3081881461831
 79
     2
 49
10.058
 49
-553.8009999999998
 53
33.69
 43
337.76
 44
146.213
 45
178.3083108718378
 46
178.308167931343
 79
     2
 49
10.058
 49
-632.8399999999999
 53
11.31
 43
328.845
 44
144.429
 45
713.2322044991397
 46
178.3088461835183
 79
     2
 49
10.058
 49
-899.1379999999999
 53
303.69
 43
325.279
 44
149.779
 45
178.308167931343
 46
-178.3083108718378
 79
     2
 49
10.058
 49
-632.84
 53
270.0
 43
325.279
 44
153.345
 45
178.308
 46
0.0000000000000109
 79
     2
 49
10.058
 49
-168.25
 53
0.0
 43
328.845
 44
42.79399999999999
 45
0.0
 46
178.308
 79
     2
 49
10.058
 49
-168.25
 53
33.69
 43
323.496
 44
39.228
 45
178.3083108718378
 46
178.308167931343
 79
     2
 49
10.058
 49
-632.8399999999999
 53
29.74499999999999
 43
311.014
 44
32.095
 45
891.5389819485984
 46
534.9254546402299
 79
     2
 49
14.376
 49
-1423.188999999999
 53
63.43499999999999
 43
307.448
 44
24.963
 45
-0.0001592666991996
 46
178.3085326617171
 79
     2
 49
10.058
 49
-388.65
 53
123.69
 43
311.014
 44
19.614
 45
-178.308167931343
 46
178.3083108718378
 79
     2
 49
10.058
 49
-632.84
 53
153.435
 43
314.58
 44
17.831
 45
-178.3085326617171
 46
-0.0001592666991854
 79
     2
 49
10.058
 49
-388.65
 53
135.0
 43
319.929
 44
12.482
 45
-178.3082885846869
 46
0.0000000000000142
 79
     2
 49
10.058
 49
-242.107
 53
149.036
 43
328.845
 44
7.132
 45
-356.6151152432159
 46
178.3089373420969
 79
     2
 49
10.397
 49
-1029.308
 53
161.565
 43
334.194
 44
5.349
 45
-178.3081881461831
 46
0.0001592663915062
 79
     2
 49
10.058
 49
-553.8009999999998
 53
198.435
 43
339.543
 44
7.132
 45
-356.6162170259747
 46
-178.3085066789661
 79
     2
 49
10.058
 49
-553.8009999999998
 53
251.565
 43
341.326
 44
12.482
 45
-0.0001592663914778
 46
-178.3081881461831
 79
     2
 49
10.058
 49
-553.8009999999998
 53
279.462
 43
339.543
 44
23.18
 45
178.3032787671777
 46
-891.5406564514453
 79
     2
 49
10.846
 49
-1073.758999999999
 53
270.0
 43
339.543
 44
30.312
 45
178.308
 46
0.0000000000000109
 79
     2
 49
10.058
 49
-168.25
 53
284.036
 43
337.76
 44
37.445
 45
178.3057953559589
 46
-534.9252054815504
 79
     2
 49
10.058
 49
-725.1239999999999
 53
323.13
 43
330.628
 44
42.79399999999999
 45
534.9237629346099
 46
-356.6167555974862
 79
     2
 49
10.058
 49
-881.4819999999999
 53
113.199
 43
250.389
 44
44.57699999999999
 45
-178.3106444179762
 46
356.6149170986065
 79
     2
 49
13.58
 49
-1344.374
 53
130.601
 43
261.088
 44
32.095
 45
-178.3070252210027
 46
178.3091845246248
 79
     2
 49
16.439
 49
-1627.479
 53
142.125
 43
277.136
 44
19.614
 45
-713.2321992443175
 46
534.9240288967341
 79
     2
 49
20.33
 49
-2012.694
 53
144.462
 43
289.617
 44
10.698
 45
-534.9217340027831
 46
356.6186795043912
 79
     2
 49
15.339
 49
-1518.525
 53
180.0
 43
294.966
 44
10.698
 45
-0.0000000000000218
 46
-178.308
 79
     2
 49
10.058
 49
-168.25
 53
237.995
 43
303.882
 44
24.963
 45
-534.9179393014635
 46
-891.5441566016097
 79
     2
 49
16.822
 49
-1665.333
 53
240.255
 43
311.014
 44
37.445
 45
-178.309104155747
 46
-356.6154930119764
 79
     2
 49
14.37599999999999
 49
-1423.188999999999
 53
243.435
 43
314.58
 44
44.57699999999999
 45
0.0001592666992138
 46
-178.3085326617171
 79
     2
 49
10.058
 49
-388.65
 53
270.0
 43
314.58
 44
58.84199999999999
 45
178.308
 46
0.0000000000000109
 79
     2
 49
14.265
 49
-164.043
 53
303.69
 43
311.014
 44
64.191
 45
178.308167931343
 46
-178.3083108718378
 79
     2
 49
10.058
 49
-632.84
 53
321.34
 43
302.099
 44
71.323
 45
713.2301932485994
 46
-534.9264135117703
 79
     2
 49
11.417
 49
-1130.311
 53
326.31
 43
296.749
 44
74.889
 45
356.616411597562
 46
-178.3074030860138
 79
     2
 49
10.058
 49
-632.8399999999999
 53
0.0
 43
291.4
 44
74.889
 45
0.0
 46
178.308
 79
     2
 49
10.058
 49
-168.25
 53
5.193999999999999
 43
271.786
 44
73.106
 45
1783.08085285629
 46
178.2943594909396
 79
     2
 49
19.695
 49
-1949.781
 53
9.461999999999997
 43
261.088
 44
71.323
 45
891.5406564514453
 46
178.3032787671776
 79
     2
 49
10.846
 49
-1073.759
 53
11.31
 43
252.172
 44
69.54
 45
713.2322044991397
 46
178.3088461835183
 79
     2
 49
10.058
 49
-899.1379999999999
 53
45.0
 43
248.606
 44
65.97399999999999
 45
0.0
 46
178.3082885846869
 79
     2
 49
10.058
 49
-242.107
 53
63.43499999999999
 43
246.823
 44
62.408
 45
-0.0001592666991996
 46
178.3085326617171
 79
     2
 49
10.058
 49
-388.65
 53
71.565
 43
245.04
 44
57.05899999999999
 45
0.0001592663914991
 46
178.3081881461831
 79
     2
 49
10.058
 49
-553.8009999999998
 98
        1
 10
0.0
 20
0.0
1001
REVIT
1002
{
1070
     1
1000
777529
1002
}
1002
{
1070
     5
1000
777587
1002
}
1002
{
1070
     2
1000
-2002000
1002
}
  0
ARC
  5
184
330
70
100
AcDbEntity
  8
_ARDEX - BUTYNOL_
370
    18
100
AcDbCircle
 10
3459.766867720903
 20
2183.619417999999
 30
0.0
 40
49.99999999999977
100
AcDbArc
 50
0.0000000000002608
 51
180.0000000000008
1001
REVIT
1002
{
1070
     1
1000
777529
1002
}
1002
{
1070
     5
1000
777587
1002
}
1002
{
1070
     2
1000
-2000051
1002
}
1002
{
1070
     3
1000
330670
1002
}
  0
ARC
  5
185
330
70
100
AcDbEntity
  8
_ARDEX - BUTYNOL_
370
    18
100
AcDbCircle
 10
3459.766867720903
 20
2183.619417999998
 30
0.0
 40
50.0
100
AcDbArc
 50
180.0000000000001
 51
0.0000000000005211
1001
REVIT
1002
{
1070
     1
1000
777529
1002
}
1002
{
1070
     5
1000
777587
1002
}
1002
{
1070
     2
1000
-2000051
1002
}
1002
{
1070
     3
1000
330670
1002
}
  0
INSERT
  5
190
330
70
100
AcDbEntity
  8
_ARDEX - WELDTEC TANKING_
100
AcDbBlockReference
  2
_ARDEX_ Lining - Various - Protection Board-732926-_X_ - AS-10 FOOTING JUNCTION NO STEP
 10
3794.741690708775
 20
2358.388052486585
 30
0.0
 50
45.0
1001
REVIT
1002
{
1070
     1
1000
771159
1002
}
1002
{
1070
     5
1000
715094
1002
}
1002
{
1070
     2
1000
-2002000
1002
}
  0
INSERT
  5
19B
330
70
100
AcDbEntity
  8
_ARDEX - WELDTEC TANKING_
100
AcDbBlockReference
  2
_ARDEX_ Lining - Various - Protection Board-732857-_X_ - AS-10 FOOTING JUNCTION NO STEP
 10
3819.741690708775
 20
2383.388052486586
 30
0.0
 50
89.99999999999991
1001
REVIT
1002
{
1070
     1
1000
771160
1002
}
1002
{
1070
     5
1000
715094
1002
}
1002
{
1070
     2
1000
-2002000
1002
}
  0
LINE
  5
19C
330
70
100
AcDbEntity
  8
_ARDEX - BUTYNOL_
370
    50
100
AcDbLine
 10
3842.324257664099
 20
2520.952300607889
 30
0.0
 11
3842.324257664099
 21
2220.952300607889
 31
0.0
1001
REVIT
1002
{
1070
     1
1000
772202
1002
}
1002
{
1070
     2
1000
-2000051
1002
}
1002
{
1070
     3
1000
330674
1002
}
  0
INSERT
  5
1A1
330
70
100
AcDbEntity
  8
_ARDEX - WELDTEC TANKING_
100
AcDbBlockReference
  2
_ARDEX_ Lines - DPC-775548-_X_ - AS-10 FOOTING JUNCTION NO STEP
 10
3870.691678963422
 20
2011.269257459964
 30
0.0
 41
0.9999999999999998
 42
0.9999999999999998
 43
0.9999999999999998
 50
134.9999999999997
1001
REVIT
1002
{
1070
     1
1000
772528
1002
}
1002
{
1070
     5
1000
709010
1002
}
1002
{
1070
     2
1000
-2002000
1002
}
  0
INSERT
  5
1A6
330
70
100
AcDbEntity
  8
_ARDEX - WELDTEC TANKING_
100
AcDbBlockReference
  2
_ARDEX_ Lines - DPC-775549-_X_ - AS-10 FOOTING JUNCTION NO STEP
 10
3840.184108946547
 20
2201.77682747684
 30
0.0
 50
269.9999999999998
1001
REVIT
1002
{
1070
     1
1000
772628
1002
}
1002
{
1070
     5
1000
709010
1002
}
1002
{
1070
     2
1000
-2002000
1002
}
  0
LINE
  5
1A7
330
70
100
AcDbEntity
  8
_ARDEX - BUTYNOL_
370
    50
100
AcDbLine
 10
3834.585961851825
 20
2338.372757944542
 30
0.0
 11
3834.585961851825
 21
2293.372757944542
 31
0.0
1001
REVIT
1002
{
1070
     1
1000
775408
1002
}
1002
{
1070
     2
1000
-2000051
1002
}
1002
{
1070
     3
1000
330674
1002
}
  0
LINE
  5
1A8
330
70
100
AcDbEntity
  8
_ARDEX - BUTYNOL_
370
    50
100
AcDbLine
 10
3834.585961851825
 20
2293.372757944542
 30
0.0
 11
3826.479360134026
 21
2285.266156226744
 31
0.0
1001
REVIT
1002
{
1070
     1
1000
775436
1002
}
1002
{
1070
     2
1000
-2000051
1002
}
1002
{
1070
     3
1000
330674
1002
}
  0
LINE
  5
1A9
330
70
100
AcDbEntity
  8
_ARDEX - BUTYNOL_
370
    50
100
AcDbLine
 10
3826.479360134026
 20
2285.266156226744
 30
0.0
 11
3826.479360134026
 21
2227.766156226744
 31
0.0
1001
REVIT
1002
{
1070
     1
1000
775479
1002
}
1002
{
1070
     2
1000
-2000051
1002
}
1002
{
1070
     3
1000
330674
1002
}
  0
INSERT
  5
1AE
330
70
100
AcDbEntity
  8
_ARDEX - WELDTEC TANKING_
100
AcDbBlockReference
  2
_ARDEX_ Lines - DPC-775570-_X_ - AS-10 FOOTING JUNCTION NO STEP
 10
3840.184108946547
 20
2201.77682747684
 30
0.0
 41
0.9999999999999998
 42
0.9999999999999998
 43
0.9999999999999998
 50
135.0
1001
REVIT
1002
{
1070
     1
1000
775569
1002
}
1002
{
1070
     5
1000
709010
1002
}
1002
{
1070
     2
1000
-2002000
1002
}
  0
INSERT
  5
1B3
330
70
100
AcDbEntity
  8
_ARDEX - WELDTEC TANKING_
100
AcDbBlockReference
  2
_ARDEX_ Lines - DPC-775632-_X_ - AS-10 FOOTING JUNCTION NO STEP
 10
3834.585961851825
 20
2207.374974571562
 30
0.0
 50
90.0
1001
REVIT
1002
{
1070
     1
1000
775631
1002
}
1002
{
1070
     5
1000
709010
1002
}
1002
{
1070
     2
1000
-2002000
1002
}
  0
INSERT
  5
1B8
330
70
100
AcDbEntity
  8
_ARDEX - WELDTEC TANKING_
 62
   133
420
  7589074
100
AcDbBlockReference
  2
_ARDEX_ Lines - WPM 3000X DPM Membrane-777067-_X_ - AS-10 FOOTING JUNCTION NO STEP
 10
3825.964672566004
 20
2378.079787018943
 30
0.0
 50
224.9999999999996
1001
REVIT
1002
{
1070
     1
1000
776339
1002
}
1002
{
1070
     5
1000
767633
1002
}
1002
{
1070
     2
1000
-2002000
1002
}
  0
INSERT
  5
1BD
330
70
100
AcDbEntity
  8
_ARDEX - WELDTEC TANKING_
 62
   133
420
  7589074
100
AcDbBlockReference
  2
_ARDEX_ Lines - WPM 3000X DPM Membrane-777068-_X_ - AS-10 FOOTING JUNCTION NO STEP
 10
3805.787003036341
 20
2357.90211748928
 30
0.0
 50
269.9999999999999
1001
REVIT
1002
{
1070
     1
1000
776611
1002
}
1002
{
1070
     5
1000
767633
1002
}
1002
{
1070
     2
1000
-2002000
1002
}
  0
INSERT
  5
1C2
330
70
100
AcDbEntity
  8
_ARDEX - WELDTEC TANKING_
 62
   133
420
  7589074
100
AcDbBlockReference
  2
_ARDEX_ Lines - WPM 3000X DPM Membrane-776765-_X_ - AS-10 FOOTING JUNCTION NO STEP
 10
3805.78700303634
 20
1919.394257459965
 30
0.0
 50
180.0
1001
REVIT
1002
{
1070
     1
1000
776764
1002
}
1002
{
1070
     5
1000
767633
1002
}
1002
{
1070
     2
1000
-2002000
1002
}
  0
CIRCLE
  5
1C3
330
70
100
AcDbEntity
  8
_ARDEX - WELDTEC TANKING_
100
AcDbCircle
 10
3329.382952994458
 20
2012.248920022702
 30
0.0
 40
7.499999999999809
1001
REVIT
1002
{
1070
     1
1000
771093
1002
}
1002
{
1070
     5
1000
613215
1002
}
1002
{
1070
     2
1000
-2005022
1002
}
  0
HATCH
  5
1C4
330
70
100
AcDbEntity
  8
_ARDEX - WELDTEC TANKING_
100
AcDbHatch
 10
0.0
 20
0.0
 30
0.0
210
0.0
220
0.0
230
1.0
  2
SOLID
 70
     1
 71
     0
 91
        1
 92
        1
 93
        1
 72
     2
 10
3329.382952994458
 20
2012.248920022702
 40
7.499999999999809
 50
0.0
 51
360.0
 73
     1
 97
        0
 75
     0
 76
     1
 98
        1
 10
0.0
 20
0.0
450
        0
451
        0
460
0.0
461
0.0
452
        0
462
0.0
453
        0
470

1001
REVIT
1002
{
1070
     1
1000
771093
1002
}
1002
{
1070
     5
1000
613215
1002
}
1002
{
1070
     2
1000
-2005022
1002
}
  0
LINE
  5
1C5
330
70
100
AcDbEntity
  8
_ARDEX - WELDTEC TANKING_
100
AcDbLine
 10
3010.866459974113
 20
2064.373267662078
 30
0.0
 11
2954.341154562863
 21
2064.373267662078
 31
0.0
1001
REVIT
1002
{
1070
     1
1000
771093
1002
}
1002
{
1070
     5
1000
613215
1002
}
1002
{
1070
     2
1000
-2005022
1002
}
  0
LINE
  5
1C6
330
70
100
AcDbEntity
  8
_ARDEX - WELDTEC TANKING_
100
AcDbLine
 10
3329.382952994458
 20
2012.248920022702
 30
0.0
 11
3010.866459974113
 21
2064.373267662078
 31
0.0
1001
REVIT
1002
{
1070
     1
1000
771093
1002
}
1002
{
1070
     5
1000
613215
1002
}
1002
{
1070
     2
1000
-2005022
1002
}
  0
MTEXT
  5
1C8
330
70
100
AcDbEntity
  8
_ARDEX - WELDTEC TANKING_
100
AcDbMText
 10
2540.241154562864
 20
2107.853475995411
 30
0.0
 40
19.99999999999999
 41
501.0546874999997
 46
0.0
 71
     1
 72
     1
  1
DISH DRAIN FORMED WITH SITE
  7
Swis721 Lt BT
 73
     2
 44
1.0
1001
REVIT
1002
{
1070
     1
1000
771093
1002
}
1002
{
1070
     5
1000
613215
1002
}
1002
{
1070
     2
1000
-2005022
1002
}
  0
MTEXT
  5
1C9
330
70
100
AcDbEntity
  8
_ARDEX - WELDTEC TANKING_
100
AcDbMText
 10
2540.241154562864
 20
2074.119100995411
 30
0.0
 40
19.99999999999999
 41
500.2529999999996
 46
0.0
 71
     1
 72
     1
  1
CONCRETE WITH 1:200 FALL TO
  7
Swis721 Lt BT
 73
     2
 44
1.0
1001
REVIT
1002
{
1070
     1
1000
771093
1002
}
1002
{
1070
     5
1000
613215
1002
}
1002
{
1070
     2
1000
-2005022
1002
}
  0
MTEXT
  5
1CA
330
70
100
AcDbEntity
  8
_ARDEX - WELDTEC TANKING_
100
AcDbMText
 10
2540.241154562864
 20
2040.384725995411
 30
0.0
 40
19.99999999999999
 41
99.40924999999994
 46
0.0
 71
     1
 72
     1
  1
DRAIN
  7
Swis721 Lt BT
 73
     2
 44
1.0
1001
REVIT
1002
{
1070
     1
1000
771093
1002
}
1002
{
1070
     5
1000
613215
1002
}
1002
{
1070
     2
1000
-2005022
1002
}
  0
CIRCLE
  5
1CB
330
70
100
AcDbEntity
  8
_ARDEX - WELDTEC TANKING_
100
AcDbCircle
 10
3446.59774946395
 20
2181.193630428595
 30
0.0
 40
7.500000000000013
1001
REVIT
1002
{
1070
     1
1000
771094
1002
}
1002
{
1070
     5
1000
613215
1002
}
1002
{
1070
     2
1000
-2005022
1002
}
  0
HATCH
  5
1CC
330
70
100
AcDbEntity
  8
_ARDEX - WELDTEC TANKING_
100
AcDbHatch
 10
0.0
 20
0.0
 30
0.0
210
0.0
220
0.0
230
1.0
  2
SOLID
 70
     1
 71
     0
 91
        1
 92
        1
 93
        1
 72
     2
 10
3446.59774946395
 20
2181.193630428595
 40
7.500000000000013
 50
0.0
 51
360.0
 73
     1
 97
        0
 75
     0
 76
     1
 98
        1
 10
0.0
 20
0.0
450
        0
451
        0
460
0.0
461
0.0
452
        0
462
0.0
453
        0
470

1001
REVIT
1002
{
1070
     1
1000
771094
1002
}
1002
{
1070
     5
1000
613215
1002
}
1002
{
1070
     2
1000
-2005022
1002
}
  0
LINE
  5
1CD
330
70
100
AcDbEntity
  8
_ARDEX - WELDTEC TANKING_
100
AcDbLine
 10
3446.59774946395
 20
2181.193630428595
 30
0.0
 11
3007.941154562864
 21
2181.243630428595
 31
0.0
1001
REVIT
1002
{
1070
     1
1000
771094
1002
}
1002
{
1070
     5
1000
613215
1002
}
1002
{
1070
     2
1000
-2005022
1002
}
  0
MTEXT
  5
1CE
330
70
100
AcDbEntity
  8
_ARDEX - WELDTEC TANKING_
100
AcDbMText
 10
2540.241154562864
 20
2224.723838761928
 30
0.0
 40
19.99999999999999
 41
465.7804374999997
 46
0.0
 71
     1
 72
     1
  1
100mm SLOTTED DRAIN WITH
  7
Swis721 Lt BT
 73
     2
 44
1.0
1001
REVIT
1002
{
1070
     1
1000
771094
1002
}
1002
{
1070
     5
1000
613215
1002
}
1002
{
1070
     2
1000
-2005022
1002
}
  0
MTEXT
  5
1CF
330
70
100
AcDbEntity
  8
_ARDEX - WELDTEC TANKING_
100
AcDbMText
 10
2540.241154562864
 20
2190.989463761928
 30
0.0
 40
19.99999999999999
 41
565.9913749999997
 46
0.0
 71
     1
 72
     1
  1
FILTER FABRIC MINIMUM FALL 1:200
  7
Swis721 Lt BT
 73
     2
 44
1.0
1001
REVIT
1002
{
1070
     1
1000
771094
1002
}
1002
{
1070
     5
1000
613215
1002
}
1002
{
1070
     2
1000
-2005022
1002
}
  0
MTEXT
  5
1D0
330
70
100
AcDbEntity
  8
_ARDEX - WELDTEC TANKING_
100
AcDbMText
 10
2540.241154562864
 20
2157.255088761928
 30
0.0
 40
19.99999999999999
 41
173.9661874999999
 46
0.0
 71
     1
 72
     1
  1
TO DRAINS
  7
Swis721 Lt BT
 73
     2
 44
1.0
1001
REVIT
1002
{
1070
     1
1000
771094
1002
}
1002
{
1070
     5
1000
613215
1002
}
1002
{
1070
     2
1000
-2005022
1002
}
  0
CIRCLE
  5
1D1
330
70
100
AcDbEntity
  8
_ARDEX - WELDTEC TANKING_
100
AcDbCircle
 10
3578.322560610951
 20
1706.435659809437
 30
0.0
 40
7.5
1001
REVIT
1002
{
1070
     1
1000
771095
1002
}
1002
{
1070
     5
1000
613215
1002
}
1002
{
1070
     2
1000
-2005022
1002
}
  0
HATCH
  5
1D2
330
70
100
AcDbEntity
  8
_ARDEX - WELDTEC TANKING_
100
AcDbHatch
 10
0.0
 20
0.0
 30
0.0
210
0.0
220
0.0
230
1.0
  2
SOLID
 70
     1
 71
     0
 91
        1
 92
        1
 93
        1
 72
     2
 10
3578.322560610951
 20
1706.435659809437
 40
7.5
 50
0.0
 51
360.0
 73
     1
 97
        0
 75
     0
 76
     1
 98
        1
 10
0.0
 20
0.0
450
        0
451
        0
460
0.0
461
0.0
452
        0
462
0.0
453
        0
470

1001
REVIT
1002
{
1070
     1
1000
771095
1002
}
1002
{
1070
     5
1000
613215
1002
}
1002
{
1070
     2
1000
-2005022
1002
}
  0
LINE
  5
1D3
330
70
100
AcDbEntity
  8
_ARDEX - WELDTEC TANKING_
100
AcDbLine
 10
3578.322560610951
 20
1614.927130557648
 30
0.0
 11
2876.7634850332
 21
1614.927130557648
 31
0.0
1001
REVIT
1002
{
1070
     1
1000
771095
1002
}
1002
{
1070
     5
1000
613215
1002
}
1002
{
1070
     2
1000
-2005022
1002
}
  0
LINE
  5
1D4
330
70
100
AcDbEntity
  8
_ARDEX - WELDTEC TANKING_
100
AcDbLine
 10
3578.322560610951
 20
1706.435659809437
 30
0.0
 11
3578.322560610951
 21
1614.927130557648
 31
0.0
1001
REVIT
1002
{
1070
     1
1000
771095
1002
}
1002
{
1070
     5
1000
613215
1002
}
1002
{
1070
     2
1000
-2005022
1002
}
  0
MTEXT
  5
1D5
330
70
100
AcDbEntity
  8
_ARDEX - WELDTEC TANKING_
100
AcDbMText
 10
2542.0634850332
 20
1624.707338890981
 30
0.0
 40
19.99999999999999
 41
404.8521874999997
 46
0.0
 71
     1
 72
     1
  1
20mm COMPACTED BASE
  7
Swis721 Lt BT
 73
     2
 44
1.0
1001
REVIT
1002
{
1070
     1
1000
771095
1002
}
1002
{
1070
     5
1000
613215
1002
}
1002
{
1070
     2
1000
-2005022
1002
}
  0
CIRCLE
  5
1D6
330
70
100
AcDbEntity
  8
_ARDEX - WELDTEC TANKING_
100
AcDbCircle
 10
3809.987896283562
 20
2678.163014330881
 30
0.0
 40
7.5
1001
REVIT
1002
{
1070
     1
1000
771098
1002
}
1002
{
1070
     5
1000
613215
1002
}
1002
{
1070
     2
1000
-2005022
1002
}
  0
HATCH
  5
1D7
330
70
100
AcDbEntity
  8
_ARDEX - WELDTEC TANKING_
100
AcDbHatch
 10
0.0
 20
0.0
 30
0.0
210
0.0
220
0.0
230
1.0
  2
SOLID
 70
     1
 71
     0
 91
        1
 92
        1
 93
        1
 72
     2
 10
3809.987896283562
 20
2678.163014330881
 40
7.5
 50
0.0
 51
360.0
 73
     1
 97
        0
 75
     0
 76
     1
 98
        1
 10
0.0
 20
0.0
450
        0
451
        0
460
0.0
461
0.0
452
        0
462
0.0
453
        0
470

1001
REVIT
1002
{
1070
     1
1000
771098
1002
}
1002
{
1070
     5
1000
613215
1002
}
1002
{
1070
     2
1000
-2005022
1002
}
  0
LINE
  5
1D8
330
70
100
AcDbEntity
  8
_ARDEX - WELDTEC TANKING_
100
AcDbLine
 10
3809.987896283562
 20
2678.163014330881
 30
0.0
 11
2968.471866218209
 21
2678.163014330881
 31
0.0
1001
REVIT
1002
{
1070
     1
1000
771098
1002
}
1002
{
1070
     5
1000
613215
1002
}
1002
{
1070
     2
1000
-2005022
1002
}
  0
MTEXT
  5
1D9
330
70
100
AcDbEntity
  8
_ARDEX - WELDTEC TANKING_
100
AcDbMText
 10
2549.071866218209
 20
2704.793222664215
 30
0.0
 40
19.99999999999999
 41
507.4681874999996
 46
0.0
 71
     1
 72
     1
  1
ARDEX DRS 10 GC PROTECTION
  7
Swis721 Lt BT
 73
     2
 44
1.0
1001
REVIT
1002
{
1070
     1
1000
771098
1002
}
1002
{
1070
     5
1000
613215
1002
}
1002
{
1070
     2
1000
-2005022
1002
}
  0
MTEXT
  5
1DA
330
70
100
AcDbEntity
  8
_ARDEX - WELDTEC TANKING_
100
AcDbMText
 10
2549.071866218209
 20
2671.058847664215
 30
0.0
 40
19.99999999999999
 41
116.2446874999999
 46
0.0
 71
     1
 72
     1
  1
BOARD
  7
Swis721 Lt BT
 73
     2
 44
1.0
1001
REVIT
1002
{
1070
     1
1000
771098
1002
}
1002
{
1070
     5
1000
613215
1002
}
1002
{
1070
     2
1000
-2005022
1002
}
  0
CIRCLE
  5
1DB
330
70
100
AcDbEntity
  8
_ARDEX - WELDTEC TANKING_
100
AcDbCircle
 10
3885.910303801388
 20
2808.96900278855
 30
0.0
 40
7.5
1001
REVIT
1002
{
1070
     1
1000
771099
1002
}
1002
{
1070
     5
1000
372261
1002
}
1002
{
1070
     2
1000
-2005022
1002
}
  0
HATCH
  5
1DC
330
70
100
AcDbEntity
  8
_ARDEX - WELDTEC TANKING_
100
AcDbHatch
 10
0.0
 20
0.0
 30
0.0
210
0.0
220
0.0
230
1.0
  2
SOLID
 70
     1
 71
     0
 91
        1
 92
        1
 93
        1
 72
     2
 10
3885.910303801388
 20
2808.96900278855
 40
7.5
 50
0.0
 51
360.0
 73
     1
 97
        0
 75
     0
 76
     1
 98
        1
 10
0.0
 20
0.0
450
        0
451
        0
460
0.0
461
0.0
452
        0
462
0.0
453
        0
470

1001
REVIT
1002
{
1070
     1
1000
771099
1002
}
1002
{
1070
     5
1000
372261
1002
}
1002
{
1070
     2
1000
-2005022
1002
}
  0
LINE
  5
1DD
330
70
100
AcDbEntity
  8
_ARDEX - WELDTEC TANKING_
100
AcDbLine
 10
3885.910303801388
 20
2808.96900278855
 30
0.0
 11
2977.763485033201
 21
2808.96900278855
 31
0.0
1001
REVIT
1002
{
1070
     1
1000
771099
1002
}
1002
{
1070
     5
1000
372261
1002
}
1002
{
1070
     2
1000
-2005022
1002
}
  0
MTEXT
  5
1DE
330
70
100
AcDbEntity
  8
_ARDEX - WELDTEC TANKING_
100
AcDbMText
 10
2540.5634850332
 20
2869.299211121883
 30
0.0
 40
19.99999999999999
 41
486.6243124999997
 46
0.0
 71
     1
 72
     1
  1
PRECAST CONCRETE WITH NO
  7
Swis721 Lt BT
 73
     2
 44
1.0
1001
REVIT
1002
{
1070
     1
1000
771099
1002
}
1002
{
1070
     5
1000
372261
1002
}
1002
{
1070
     2
1000
-2005022
1002
}
  0
MTEXT
  5
1DF
330
70
100
AcDbEntity
  8
_ARDEX - WELDTEC TANKING_
100
AcDbMText
 10
2540.5634850332
 20
2835.564836121883
 30
0.0
 40
19.99999999999999
 41
98.60756249999996
 46
0.0
 71
     1
 72
     1
  1
VOIDS
  7
Swis721 Lt BT
 73
     2
 44
1.0
1001
REVIT
1002
{
1070
     1
1000
771099
1002
}
1002
{
1070
     5
1000
372261
1002
}
1002
{
1070
     2
1000
-2005022
1002
}
  0
MTEXT
  5
1E0
330
70
100
AcDbEntity
  8
_ARDEX - WELDTEC TANKING_
100
AcDbMText
 10
2540.5634850332
 20
2801.830461121884
 30
0.0
 40
19.99999999999999
 41
529.1137499999997
 46
0.0
 71
     1
 72
     1
  1
BLOCKWORK WITH FLUSH FINISH
  7
Swis721 Lt BT
 73
     2
 44
1.0
1001
REVIT
1002
{
1070
     1
1000
771099
1002
}
1002
{
1070
     5
1000
372261
1002
}
1002
{
1070
     2
1000
-2005022
1002
}
  0
MTEXT
  5
1E1
330
70
100
AcDbEntity
  8
_ARDEX - WELDTEC TANKING_
100
AcDbMText
 10
2540.5634850332
 20
2768.096086121883
 30
0.0
 40
19.99999999999999
 41
209.2404374999998
 46
0.0
 71
     1
 72
     1
  1
TO DPM SIDE
  7
Swis721 Lt BT
 73
     2
 44
1.0
1001
REVIT
1002
{
1070
     1
1000
771099
1002
}
1002
{
1070
     5
1000
372261
1002
}
1002
{
1070
     2
1000
-2005022
1002
}
  0
CIRCLE
  5
1E2
330
70
100
AcDbEntity
  8
_ARDEX - WELDTEC TANKING_
100
AcDbCircle
 10
3949.102735744896
 20
2374.84235220042
 30
0.0
 40
7.5
1001
REVIT
1002
{
1070
     1
1000
771101
1002
}
1002
{
1070
     5
1000
613215
1002
}
1002
{
1070
     2
1000
-2005022
1002
}
  0
HATCH
  5
1E3
330
70
100
AcDbEntity
  8
_ARDEX - WELDTEC TANKING_
100
AcDbHatch
 10
0.0
 20
0.0
 30
0.0
210
0.0
220
0.0
230
1.0
  2
SOLID
 70
     1
 71
     0
 91
        1
 92
        1
 93
        1
 72
     2
 10
3949.102735744896
 20
2374.84235220042
 40
7.5
 50
0.0
 51
360.0
 73
     1
 97
        0
 75
     0
 76
     1
 98
        1
 10
0.0
 20
0.0
450
        0
451
        0
460
0.0
461
0.0
452
        0
462
0.0
453
        0
470

1001
REVIT
1002
{
1070
     1
1000
771101
1002
}
1002
{
1070
     5
1000
613215
1002
}
1002
{
1070
     2
1000
-2005022
1002
}
  0
LINE
  5
1E4
330
70
100
AcDbEntity
  8
_ARDEX - WELDTEC TANKING_
100
AcDbLine
 10
3949.102735744896
 20
2507.28092368683
 30
0.0
 11
2942.871866218209
 21
2507.28092368683
 31
0.0
1001
REVIT
1002
{
1070
     1
1000
771101
1002
}
1002
{
1070
     5
1000
613215
1002
}
1002
{
1070
     2
1000
-2005022
1002
}
  0
LINE
  5
1E5
330
70
100
AcDbEntity
  8
_ARDEX - WELDTEC TANKING_
100
AcDbLine
 10
3949.102735744896
 20
2374.84235220042
 30
0.0
 11
3949.102735744896
 21
2507.28092368683
 31
0.0
1001
REVIT
1002
{
1070
     1
1000
771101
1002
}
1002
{
1070
     5
1000
613215
1002
}
1002
{
1070
     2
1000
-2005022
1002
}
  0
MTEXT
  5
1E6
330
70
100
AcDbEntity
  8
_ARDEX - WELDTEC TANKING_
100
AcDbMText
 10
2534.07186621821
 20
2517.061132020163
 30
0.0
 40
19.99999999999999
 41
494.6411874999997
 46
0.0
 71
     1
 72
     1
  1
WATER STOP ARDEX WPM 1955
  7
Swis721 Lt BT
 73
     2
 44
1.0
1001
REVIT
1002
{
1070
     1
1000
771101
1002
}
1002
{
1070
     5
1000
613215
1002
}
1002
{
1070
     2
1000
-2005022
1002
}
  0
CIRCLE
  5
1E7
330
70
100
AcDbEntity
  8
_ARDEX - WELDTEC TANKING_
100
AcDbCircle
 10
3874.744212112597
 20
1946.323267662078
 30
0.0
 40
7.5
1001
REVIT
1002
{
1070
     1
1000
771142
1002
}
1002
{
1070
     5
1000
613215
1002
}
1002
{
1070
     2
1000
-2005022
1002
}
  0
HATCH
  5
1E8
330
70
100
AcDbEntity
  8
_ARDEX - WELDTEC TANKING_
100
AcDbHatch
 10
0.0
 20
0.0
 30
0.0
210
0.0
220
0.0
230
1.0
  2
SOLID
 70
     1
 71
     0
 91
        1
 92
        1
 93
        1
 72
     2
 10
3874.744212112597
 20
1946.323267662078
 40
7.5
 50
0.0
 51
360.0
 73
     1
 97
        0
 75
     0
 76
     1
 98
        1
 10
0.0
 20
0.0
450
        0
451
        0
460
0.0
461
0.0
452
        0
462
0.0
453
        0
470

1001
REVIT
1002
{
1070
     1
1000
771142
1002
}
1002
{
1070
     5
1000
613215
1002
}
1002
{
1070
     2
1000
-2005022
1002
}
  0
LINE
  5
1E9
330
70
100
AcDbEntity
  8
_ARDEX - WELDTEC TANKING_
100
AcDbLine
 10
3874.744212112597
 20
1946.323267662078
 30
0.0
 11
2975.541154562864
 21
1946.323267662078
 31
0.0
1001
REVIT
1002
{
1070
     1
1000
771142
1002
}
1002
{
1070
     5
1000
613215
1002
}
1002
{
1070
     2
1000
-2005022
1002
}
  0
MTEXT
  5
1EA
330
70
100
AcDbEntity
  8
_ARDEX - WELDTEC TANKING_
100
AcDbMText
 10
2540.241154562864
 20
2006.653475995411
 30
0.0
 40
19.99999999999999
 41
488.2276874999997
 46
0.0
 71
     1
 72
     1
  1
MIN 75mm SITE CONCRETE OR
  7
Swis721 Lt BT
 73
     2
 44
1.0
1001
REVIT
1002
{
1070
     1
1000
771142
1002
}
1002
{
1070
     5
1000
613215
1002
}
1002
{
1070
     2
1000
-2005022
1002
}
  0
MTEXT
  5
1EB
330
70
100
AcDbEntity
  8
_ARDEX - WELDTEC TANKING_
100
AcDbMText
 10
2540.241154562864
 20
1972.919100995411
 30
0.0
 40
19.99999999999999
 41
526.7086874999997
 46
0.0
 71
     1
 72
     1
  1
COMPACTED HARDFILL OR SAND
  7
Swis721 Lt BT
 73
     2
 44
1.0
1001
REVIT
1002
{
1070
     1
1000
771142
1002
}
1002
{
1070
     5
1000
613215
1002
}
1002
{
1070
     2
1000
-2005022
1002
}
  0
MTEXT
  5
1EC
330
70
100
AcDbEntity
  8
_ARDEX - WELDTEC TANKING_
100
AcDbMText
 10
2540.241154562864
 20
1939.184725995411
 30
0.0
 40
19.99999999999999
 41
473.7973124999997
 46
0.0
 71
     1
 72
     1
  1
BLINDING AS PER ENGINEERS
  7
Swis721 Lt BT
 73
     2
 44
1.0
1001
REVIT
1002
{
1070
     1
1000
771142
1002
}
1002
{
1070
     5
1000
613215
1002
}
1002
{
1070
     2
1000
-2005022
1002
}
  0
MTEXT
  5
1ED
330
70
100
AcDbEntity
  8
_ARDEX - WELDTEC TANKING_
100
AcDbMText
 10
2540.241154562864
 20
1905.450350995411
 30
0.0
 40
19.99999999999999
 41
243.7129999999999
 46
0.0
 71
     1
 72
     1
  1
SPECIFICATION
  7
Swis721 Lt BT
 73
     2
 44
1.0
1001
REVIT
1002
{
1070
     1
1000
771142
1002
}
1002
{
1070
     5
1000
613215
1002
}
1002
{
1070
     2
1000
-2005022
1002
}
  0
CIRCLE
  5
1EE
330
70
100
AcDbEntity
  8
_ARDEX - WELDTEC TANKING_
100
AcDbCircle
 10
4283.108788820864
 20
2012.248920022702
 30
0.0
 40
7.5
1001
REVIT
1002
{
1070
     1
1000
771158
1002
}
1002
{
1070
     5
1000
613215
1002
}
1002
{
1070
     2
1000
-2005022
1002
}
  0
HATCH
  5
1EF
330
70
100
AcDbEntity
  8
_ARDEX - WELDTEC TANKING_
100
AcDbHatch
 10
0.0
 20
0.0
 30
0.0
210
0.0
220
0.0
230
1.0
  2
SOLID
 70
     1
 71
     0
 91
        1
 92
        1
 93
        1
 72
     2
 10
4283.108788820864
 20
2012.248920022702
 40
7.5
 50
0.0
 51
360.0
 73
     1
 97
        0
 75
     0
 76
     1
 98
        1
 10
0.0
 20
0.0
450
        0
451
        0
460
0.0
461
0.0
452
        0
462
0.0
453
        0
470

1001
REVIT
1002
{
1070
     1
1000
771158
1002
}
1002
{
1070
     5
1000
613215
1002
}
1002
{
1070
     2
1000
-2005022
1002
}
  0
LINE
  5
1F0
330
70
100
AcDbEntity
  8
_ARDEX - WELDTEC TANKING_
100
AcDbLine
 10
4283.108788820864
 20
1757.866224984272
 30
0.0
 11
2993.341154562864
 21
1757.866224984272
 31
0.0
1001
REVIT
1002
{
1070
     1
1000
771158
1002
}
1002
{
1070
     5
1000
613215
1002
}
1002
{
1070
     2
1000
-2005022
1002
}
  0
LINE
  5
1F1
330
70
100
AcDbEntity
  8
_ARDEX - WELDTEC TANKING_
100
AcDbLine
 10
4283.108788820864
 20
2012.248920022702
 30
0.0
 11
4283.108788820864
 21
1757.866224984272
 31
0.0
1001
REVIT
1002
{
1070
     1
1000
771158
1002
}
1002
{
1070
     5
1000
613215
1002
}
1002
{
1070
     2
1000
-2005022
1002
}
  0
MTEXT
  5
1F2
330
70
100
AcDbEntity
  8
_ARDEX - WELDTEC TANKING_
100
AcDbMText
 10
2540.241154562864
 20
1835.096433317606
 30
0.0
 40
19.99999999999999
 41
529.9154374999996
 46
0.0
 71
     1
 72
     1
  1
HORIZONTAL DPC NOT COVERED
  7
Swis721 Lt BT
 73
     2
 44
1.0
1001
REVIT
1002
{
1070
     1
1000
771158
1002
}
1002
{
1070
     5
1000
613215
1002
}
1002
{
1070
     2
1000
-2005022
1002
}
  0
MTEXT
  5
1F3
330
70
100
AcDbEntity
  8
_ARDEX - WELDTEC TANKING_
100
AcDbMText
 10
2540.241154562864
 20
1801.362058317605
 30
0.0
 40
19.99999999999999
 41
345.5273124999998
 46
0.0
 71
     1
 72
     1
  1
BY ARDEX WARRANTY
  7
Swis721 Lt BT
 73
     2
 44
1.0
1001
REVIT
1002
{
1070
     1
1000
771158
1002
}
1002
{
1070
     5
1000
613215
1002
}
1002
{
1070
     2
1000
-2005022
1002
}
  0
MTEXT
  5
1F4
330
70
100
AcDbEntity
  8
_ARDEX - WELDTEC TANKING_
100
AcDbMText
 10
2540.241154562864
 20
1767.627683317605
 30
0.0
 40
19.99999999999999
 41
463.3753749999997
 46
0.0
 71
     1
 72
     1
  1
ARDEX RECOMMEND TAKING
  7
Swis721 Lt BT
 73
     2
 44
1.0
1001
REVIT
1002
{
1070
     1
1000
771158
1002
}
1002
{
1070
     5
1000
613215
1002
}
1002
{
1070
     2
1000
-2005022
1002
}
  0
MTEXT
  5
1F5
330
70
100
AcDbEntity
  8
_ARDEX - WELDTEC TANKING_
100
AcDbMText
 10
2540.241154562864
 20
1733.893308317606
 30
0.0
 40
19.99999999999999
 41
525.9069999999996
 46
0.0
 71
     1
 72
     1
  1
MEMBRANE UNDER ENTIRE SLAB
  7
Swis721 Lt BT
 73
     2
 44
1.0
1001
REVIT
1002
{
1070
     1
1000
771158
1002
}
1002
{
1070
     5
1000
613215
1002
}
1002
{
1070
     2
1000
-2005022
1002
}
  0
MTEXT
  5
1F6
330
70
100
AcDbEntity
  8
_ARDEX - WELDTEC TANKING_
100
AcDbMText
 10
2540.241154562864
 20
1700.158933317605
 30
0.0
 40
19.99999999999999
 41
548.3542499999996
 46
0.0
 71
     1
 72
     1
  1
FOR COMPLETE WATERPROOFING
  7
Swis721 Lt BT
 73
     2
 44
1.0
1001
REVIT
1002
{
1070
     1
1000
771158
1002
}
1002
{
1070
     5
1000
613215
1002
}
1002
{
1070
     2
1000
-2005022
1002
}
  0
CIRCLE
  5
1F7
330
70
100
AcDbEntity
  8
_ARDEX - WELDTEC TANKING_
100
AcDbCircle
 10
3835.934367780263
 20
2976.21271689432
 30
0.0
 40
7.5
1001
REVIT
1002
{
1070
     1
1000
771169
1002
}
1002
{
1070
     5
1000
372253
1002
}
1002
{
1070
     2
1000
-2005022
1002
}
  0
HATCH
  5
1F8
330
70
100
AcDbEntity
  8
_ARDEX - WELDTEC TANKING_
100
AcDbHatch
 10
0.0
 20
0.0
 30
0.0
210
0.0
220
0.0
230
1.0
  2
SOLID
 70
     1
 71
     0
 91
        1
 92
        1
 93
        1
 72
     2
 10
3835.934367780263
 20
2976.21271689432
 40
7.5
 50
0.0
 51
360.0
 73
     1
 97
        0
 75
     0
 76
     1
 98
        1
 10
0.0
 20
0.0
450
        0
451
        0
460
0.0
461
0.0
452
        0
462
0.0
453
        0
470

1001
REVIT
1002
{
1070
     1
1000
771169
1002
}
1002
{
1070
     5
1000
372253
1002
}
1002
{
1070
     2
1000
-2005022
1002
}
  0
LINE
  5
1F9
330
70
100
AcDbEntity
  8
_ARDEX - WELDTEC TANKING_
100
AcDbLine
 10
3835.934367780263
 20
3053.168778720293
 30
0.0
 11
2945.971866218208
 21
3053.218778720293
 31
0.0
1001
REVIT
1002
{
1070
     1
1000
771169
1002
}
1002
{
1070
     5
1000
372253
1002
}
1002
{
1070
     2
1000
-2005022
1002
}
  0
LINE
  5
1FA
330
70
100
AcDbEntity
  8
_ARDEX - WELDTEC TANKING_
100
AcDbLine
 10
3835.934367780263
 20
2976.21271689432
 30
0.0
 11
3835.934367780263
 21
3053.168778720293
 31
0.0
1001
REVIT
1002
{
1070
     1
1000
771169
1002
}
1002
{
1070
     5
1000
372253
1002
}
1002
{
1070
     2
1000
-2005022
1002
}
  0
MTEXT
  5
1FB
330
70
100
AcDbEntity
  8
_ARDEX - WELDTEC TANKING_
100
AcDbMText
 10
2532.571866218209
 20
3096.698987053626
 30
0.0
 40
19.99999999999999
 41
500.2529999999996
 46
0.0
 71
     1
 72
     1
  1
ARDEX WPM 240/247 OR ARDEX
  7
Swis721 Lt BT
 73
     2
 44
1.0
1001
REVIT
1002
{
1070
     1
1000
771169
1002
}
1002
{
1070
     5
1000
372253
1002
}
1002
{
1070
     2
1000
-2005022
1002
}
  0
MTEXT
  5
1FC
330
70
100
AcDbEntity
  8
_ARDEX - WELDTEC TANKING_
100
AcDbMText
 10
2532.571866218209
 20
3062.964612053626
 30
0.0
 40
19.99999999999999
 41
446.5399374999997
 46
0.0
 71
     1
 72
     1
  1
WPM 300 FOR DAMP/GREEN
  7
Swis721 Lt BT
 73
     2
 44
1.0
1001
REVIT
1002
{
1070
     1
1000
771169
1002
}
1002
{
1070
     5
1000
372253
1002
}
1002
{
1070
     2
1000
-2005022
1002
}
  0
MTEXT
  5
1FD
330
70
100
AcDbEntity
  8
_ARDEX - WELDTEC TANKING_
100
AcDbMText
 10
2532.571866218209
 20
3029.230237053627
 30
0.0
 40
19.99999999999999
 41
181.1813749999999
 46
0.0
 71
     1
 72
     1
  1
CONCRETE
  7
Swis721 Lt BT
 73
     2
 44
1.0
1001
REVIT
1002
{
1070
     1
1000
771169
1002
}
1002
{
1070
     5
1000
372253
1002
}
1002
{
1070
     2
1000
-2005022
1002
}
  0
CIRCLE
  5
1FE
330
70
100
AcDbEntity
  8
_ARDEX - WELDTEC TANKING_
100
AcDbCircle
 10
3841.025105944964
 20
2430.882380605197
 30
0.0
 40
7.499999999999472
1001
REVIT
1002
{
1070
     1
1000
772315
1002
}
1002
{
1070
     5
1000
343954
1002
}
1002
{
1070
     2
1000
-2000300
1002
}
  0
HATCH
  5
1FF
330
70
100
AcDbEntity
  8
_ARDEX - WELDTEC TANKING_
100
AcDbHatch
 10
0.0
 20
0.0
 30
0.0
210
0.0
220
0.0
230
1.0
  2
SOLID
 70
     1
 71
     0
 91
        1
 92
        1
 93
        1
 72
     2
 10
3841.025105944964
 20
2430.882380605197
 40
7.499999999999472
 50
0.0
 51
360.0
 73
     1
 97
        0
 75
     0
 76
     1
 98
        1
 10
0.0
 20
0.0
450
        0
451
        0
460
0.0
461
0.0
452
        0
462
0.0
453
        0
470

1001
REVIT
1002
{
1070
     1
1000
772315
1002
}
1002
{
1070
     5
1000
343954
1002
}
1002
{
1070
     2
1000
-2000300
1002
}
  0
LINE
  5
200
330
70
100
AcDbEntity
  8
_ARDEX - WELDTEC TANKING_
100
AcDbLine
 10
3841.025105944964
 20
2430.882380605197
 30
0.0
 11
2970.574889810993
 21
2432.073487866675
 31
0.0
1001
REVIT
1002
{
1070
     1
1000
772315
1002
}
1002
{
1070
     5
1000
343954
1002
}
1002
{
1070
     2
1000
-2000300
1002
}
  0
MTEXT
  5
201
330
70
100
AcDbEntity
  8
_ARDEX - WELDTEC TANKING_
100
AcDbMText
 10
2537.24841952986
 20
2458.703696200009
 30
0.0
 40
20.0
 41
500.253
 46
0.0
 71
     1
 72
     1
  1
300mm WIDE WPM 3000 UNDER 
  7
Swis721 Lt BT
 73
     2
 44
1.0
1001
REVIT
1002
{
1070
     1
1000
772315
1002
}
1002
{
1070
     5
1000
343954
1002
}
1002
{
1070
     2
1000
-2000300
1002
}
  0
MTEXT
  5
202
330
70
100
AcDbEntity
  8
_ARDEX - WELDTEC TANKING_
100
AcDbMText
 10
2537.24841952986
 20
2424.969321200008
 30
0.0
 40
20.0
 41
448.9449999999999
 46
0.0
 71
     1
 72
     1
  1
FLASHING TO BRIDGE JOINT
  7
Swis721 Lt BT
 73
     2
 44
1.0
1001
REVIT
1002
{
1070
     1
1000
772315
1002
}
1002
{
1070
     5
1000
343954
1002
}
1002
{
1070
     2
1000
-2000300
1002
}
  0
CIRCLE
  5
203
330
70
100
AcDbEntity
  8
_ARDEX - WELDTEC TANKING_
100
AcDbCircle
 10
3827.331278142616
 20
2284.230482852978
 30
0.0
 40
7.5
1001
REVIT
1002
{
1070
     1
1000
778149
1002
}
1002
{
1070
     5
1000
343954
1002
}
1002
{
1070
     2
1000
-2000300
1002
}
  0
HATCH
  5
204
330
70
100
AcDbEntity
  8
_ARDEX - WELDTEC TANKING_
100
AcDbHatch
 10
0.0
 20
0.0
 30
0.0
210
0.0
220
0.0
230
1.0
  2
SOLID
 70
     1
 71
     0
 91
        1
 92
        1
 93
        1
 72
     2
 10
3827.331278142616
 20
2284.230482852978
 40
7.5
 50
0.0
 51
360.0
 73
     1
 97
        0
 75
     0
 76
     1
 98
        1
 10
0.0
 20
0.0
450
        0
451
        0
460
0.0
461
0.0
452
        0
462
0.0
453
        0
470

1001
REVIT
1002
{
1070
     1
1000
778149
1002
}
1002
{
1070
     5
1000
343954
1002
}
1002
{
1070
     2
1000
-2000300
1002
}
  0
LINE
  5
205
330
70
100
AcDbEntity
  8
_ARDEX - WELDTEC TANKING_
100
AcDbLine
 10
3827.331278142616
 20
2284.230482852978
 30
0.0
 11
2985.484558660991
 21
2284.230482852978
 31
0.0
1001
REVIT
1002
{
1070
     1
1000
778149
1002
}
1002
{
1070
     5
1000
343954
1002
}
1002
{
1070
     2
1000
-2000300
1002
}
  0
MTEXT
  5
206
330
70
100
AcDbEntity
  8
_ARDEX - WELDTEC TANKING_
100
AcDbMText
 10
2548.477589935834
 20
2310.86069118631
 30
0.0
 40
20.0
 41
426.4977499999999
 46
0.0
 71
     1
 72
     1
  1
TAPE POLYTHENE DPM TO 
  7
Swis721 Lt BT
 73
     2
 44
1.0
1001
REVIT
1002
{
1070
     1
1000
778149
1002
}
1002
{
1070
     5
1000
343954
1002
}
1002
{
1070
     2
1000
-2000300
1002
}
  0
MTEXT
  5
207
330
70
100
AcDbEntity
  8
_ARDEX - WELDTEC TANKING_
100
AcDbMText
 10
2548.477589935834
 20
2277.12631618631
 30
0.0
 40
20.0
 41
284.5990625
 46
0.0
 71
     1
 72
     1
  1
UNDER FLASHING
  7
Swis721 Lt BT
 73
     2
 44
1.0
1001
REVIT
1002
{
1070
     1
1000
778149
1002
}
1002
{
1070
     5
1000
343954
1002
}
1002
{
1070
     2
1000
-2000300
1002
}
  0
CIRCLE
  5
208
330
70
100
AcDbEntity
  8
_ARDEX - WELDTEC TANKING_
100
AcDbCircle
 10
3827.186037336423
 20
2934.543486945016
 30
0.0
 40
7.5
1001
REVIT
1002
{
1070
     1
1000
793510
1002
}
1002
{
1070
     5
1000
372253
1002
}
1002
{
1070
     2
1000
-2005022
1002
}
  0
HATCH
  5
209
330
70
100
AcDbEntity
  8
_ARDEX - WELDTEC TANKING_
100
AcDbHatch
 10
0.0
 20
0.0
 30
0.0
210
0.0
220
0.0
230
1.0
  2
SOLID
 70
     1
 71
     0
 91
        1
 92
        1
 93
        1
 72
     2
 10
3827.186037336423
 20
2934.543486945016
 40
7.5
 50
0.0
 51
360.0
 73
     1
 97
        0
 75
     0
 76
     1
 98
        1
 10
0.0
 20
0.0
450
        0
451
        0
460
0.0
461
0.0
452
        0
462
0.0
453
        0
470

1001
REVIT
1002
{
1070
     1
1000
793510
1002
}
1002
{
1070
     5
1000
372253
1002
}
1002
{
1070
     2
1000
-2005022
1002
}
  0
LINE
  5
20A
330
70
100
AcDbEntity
  8
_ARDEX - WELDTEC TANKING_
100
AcDbLine
 10
3078.863486184727
 20
2934.543486945016
 30
0.0
 11
2846.239719518891
 21
2934.543486945017
 31
0.0
1001
REVIT
1002
{
1070
     1
1000
793510
1002
}
1002
{
1070
     5
1000
372253
1002
}
1002
{
1070
     2
1000
-2005022
1002
}
  0
LINE
  5
20B
330
70
100
AcDbEntity
  8
_ARDEX - WELDTEC TANKING_
100
AcDbLine
 10
3827.186037336423
 20
2934.543486945016
 30
0.0
 11
3078.863486184727
 21
2934.543486945016
 31
0.0
1001
REVIT
1002
{
1070
     1
1000
793510
1002
}
1002
{
1070
     5
1000
372253
1002
}
1002
{
1070
     2
1000
-2005022
1002
}
  0
MTEXT
  5
20C
330
70
100
AcDbEntity
  8
_ARDEX - WELDTEC TANKING_
100
AcDbMText
 10
2532.03971951889
 20
2961.17369527835
 30
0.0
 40
19.99999999999999
 41
379.9998749999998
 46
0.0
 71
     1
 72
     1
  1
ARDEX WPM 3000X DPM
  7
Swis721 Lt BT
 73
     2
 44
1.0
1001
REVIT
1002
{
1070
     1
1000
793510
1002
}
1002
{
1070
     5
1000
372253
1002
}
1002
{
1070
     2
1000
-2005022
1002
}
  0
MTEXT
  5
20D
330
70
100
AcDbEntity
  8
_ARDEX - WELDTEC TANKING_
100
AcDbMText
 10
2532.03971951889
 20
2927.43932027835
 30
0.0
 40
19.99999999999999
 41
187.5948749999999
 46
0.0
 71
     1
 72
     1
  1
MEMBRANE
  7
Swis721 Lt BT
 73
     2
 44
1.0
1001
REVIT
1002
{
1070
     1
1000
793510
1002
}
1002
{
1070
     5
1000
372253
1002
}
1002
{
1070
     2
1000
-2005022
1002
}
  0
VIEWPORT
  5
20E
330
6C
100
AcDbEntity
 67
     1
  8
_ARDEX - WELDTEC TANKING_
100
AcDbViewport
 10
145.3186458385382
 20
98.89389383044765
 30
0.0
 40
282.9959382055858
 41
200.578350826755
 68
    -1
 69
     2
 12
3838.463582540433
 22
2231.84892131368
 13
0.0
 23
0.0
 14
0.0
 24
0.0
 15
0.0
 25
0.0
 16
0.0
 26
0.0
 36
1.0
 17
0.0
 27
0.0
 37
0.0
 42
0.0
 43
0.0
 44
0.0
 45
2005.78350826755
 50
0.0
 51
0.0
 72
  1000
 90
    32768
  1

281
     0
 71
     1
 74
     1
110
0.0
120
0.0
130
0.0
111
1.0
121
0.0
131
0.0
112
0.0
122
1.0
132
0.0
 79
     0
146
0.0
170
     0
 61
     5
292
     1
282
     1
141
0.0
142
0.0
 63
   250
421
  3355443
  0
VIEWPORT
  5
210
330
6C
100
AcDbEntity
 67
     1
  8
0
100
AcDbViewport
 10
6.0
 20
4.5
 30
0.0
 40
12.0
 41
9.0
 68
    -1
 69
     1
 12
6.0
 22
4.5
 13
0.0
 23
0.0
 14
0.0
 24
0.0
 15
0.0
 25
0.0
 16
0.0
 26
0.0
 36
1.0
 17
0.0
 27
0.0
 37
0.0
 42
50.0
 43
0.0
 44
0.0
 45
12.0
 50
0.0
 51
0.0
 72
   100
 90
    32800
  1

281
     0
 71
     1
 74
     1
110
0.0
120
0.0
130
0.0
111
1.0
121
0.0
131
0.0
112
0.0
122
1.0
132
0.0
 79
     0
146
0.0
170
     0
 61
     5
292
     1
282
     1
141
0.0
142
0.0
 63
   250
421
  3355443
  0
INSERT
  5
2A3
330
6C
100
AcDbEntity
 67
     1
  8
_ARDEX - WELDTEC TANKING_
 62
   133
420
  7589074
100
AcDbBlockReference
  2
_ARDEX_ Landscape Title block Weldtec Tanking - WPM 3000X-677308-FOOTING JUNCTION NO STEP 1
 10
0.0
 20
0.0
 30
0.0
1001
REVIT
1002
{
1070
     1
1000
785721
1002
}
1002
{
1070
     5
1000
677308
1002
}
1002
{
1070
     2
1000
-2000280
1002
}
  0
MTEXT
  5
2A5
330
6C
100
AcDbEntity
 67
     1
  8
_ARDEX - WELDTEC TANKING_
100
AcDbMText
 10
229.7792895384866
 20
4.159953483062439
 30
0.0
 40
2.0
 41
9.1392375
 46
0.0
 71
     1
 72
     1
  1
 1 : 10
  7
Swis721 Lt BT_4
 73
     2
 44
1.0
 90
        3
 63
     9
421
 13158600
 45
1.25
441
        0
1001
REVIT
1002
{
1070
     1
1000
785721
1002
}
1002
{
1070
     5
1000
677308
1002
}
1002
{
1070
     2
1000
-2000280
1002
}
  0
MTEXT
  5
2A7
330
6C
100
AcDbEntity
 67
     1
  8
_ARDEX - WELDTEC TANKING_
100
AcDbMText
 10
95.1576274176504
 20
13.00813448458874
 30
0.0
 40
3.0
 41
74.3966
 46
0.0
 71
     1
 72
     1
  1
FOOTING JUNCTION NO STEP 1
  7
Swis721 Lt BT_5
 73
     2
 44
1.0
 90
        3
 63
     9
421
 13158600
 45
1.25
441
        0
1001
REVIT
1002
{
1070
     1
1000
785721
1002
}
1002
{
1070
     5
1000
677308
1002
}
1002
{
1070
     2
1000
-2000280
1002
}
  0
MTEXT
  5
2A9
330
6C
100
AcDbEntity
 67
     1
  8
_ARDEX - WELDTEC TANKING_
100
AcDbMText
 10
220.4042895384866
 20
17.16307825028811
 30
0.0
 40
5.0
 41
35.27425
 46
0.0
 71
     1
 72
     1
  1
AS-10(X)
  7
Arial
 73
     2
 44
1.0
 90
        3
 63
     9
421
 13158600
 45
1.25
441
        0
1001
REVIT
1002
{
1070
     1
1000
785721
1002
}
1002
{
1070
     5
1000
677308
1002
}
1002
{
1070
     2
1000
-2000280
1002
}
  0
MTEXT
  5
2AA
330
6C
100
AcDbEntity
 67
     1
  8
_ARDEX - WELDTEC TANKING_
100
AcDbMText
 10
220.4042895384866
 20
8.218762607224899
 30
0.0
 40
2.0
 41
16.5147625
 46
0.0
 71
     1
 72
     1
  1
21.08.2022
  7
Swis721 Lt BT_4
 73
     2
 44
1.0
 90
        3
 63
     9
421
 13158600
 45
1.25
441
        0
1001
REVIT
1002
{
1070
     1
1000
785721
1002
}
1002
{
1070
     5
1000
677308
1002
}
1002
{
1070
     2
1000
-2000280
1002
}
  0
LINE
  5
2AB
330
6C
100
AcDbEntity
 67
     1
  8
_ARDEX - WELDTEC TANKING_
100
AcDbLine
 10
3.820676735745302
 20
-1.395281582929872
 30
0.0
 11
286.816614941331
 21
-1.395281582929872
 31
0.0
1001
REVIT
1002
{
1070
     1
1000
785723
1002
}
1002
{
1070
     5
1000
949
1002
}
1002
{
1070
     2
1000
-2000510
1002
}
  0
ENDSEC
  0
SECTION
  2
OBJECTS
  0
DICTIONARY
  5
C
330
0
100
AcDbDictionary
281
     1
  3
ACAD_CIP_PREVIOUS_PRODUCT_INFO
350
79
  3
ACAD_COLOR
350
63
  3
ACAD_DETAILVIEWSTYLE
350
6A
  3
ACAD_GROUP
350
D
  3
ACAD_IMAGE_VARS
350
7A
  3
ACAD_LAYOUT
350
62
  3
ACAD_MATERIAL
350
10
  3
ACAD_MLEADERSTYLE
350
66
  3
ACAD_MLINESTYLE
350
5F
  3
ACAD_PLOTSETTINGS
350
61
  3
ACAD_PLOTSTYLENAME
350
E
  3
ACAD_SCALELIST
350
42
  3
ACAD_SECTIONVIEWSTYLE
350
68
  3
ACAD_TABLESTYLE
350
64
  3
ACAD_VISUALSTYLE
350
29
  3
ACDB_RECOMPOSE_DATA
350
2BA
  3
AcDbVariableDictionary
350
7B
  3
REVIT_DICTIONARY
350
2AC
  0
SUN
  5
2B4
330
57
100
AcDbSun
 90
        1
290
     1
 63
     7
421
 16777215
 40
0.3
291
     1
 91
  2459451
 92
 66032000
292
     0
 70
     1
 71
   128
280
     1
1001
ACAD
1000
AcDbSavedByObjectVersion
1070
     0
  0
DICTIONARY
  5
2B1
330
70
100
AcDbDictionary
280
     1
281
     1
  3
ACAD_SORTENTS
360
2B2
  0
XRECORD
  5
79
102
{ACAD_REACTORS
330
C
102
}
330
C
100
AcDbXrecord
280
     1
300
RVT
300
2023
300
RVT2023
  0
DICTIONARY
  5
63
102
{ACAD_REACTORS
330
C
102
}
330
C
100
AcDbDictionary
281
     1
  0
DICTIONARY
  5
6A
102
{ACAD_REACTORS
330
C
102
}
330
C
100
AcDbDictionary
281
     1
  3
Imperial24
350
6B
  0
DICTIONARY
  5
D
102
{ACAD_REACTORS
330
C
102
}
330
C
100
AcDbDictionary
281
     1
  0
RASTERVARIABLES
  5
7A
102
{ACAD_REACTORS
330
C
102
}
330
C
100
AcDbRasterVariables
 90
        0
 70
     0
 71
     1
 72
     1
  0
DICTIONARY
  5
62
102
{ACAD_REACTORS
330
C
102
}
330
C
100
AcDbDictionary
281
     1
  3
Layout1
350
6F
  3
Layout2
350
77
  3
Model
350
73
  0
DICTIONARY
  5
10
102
{ACAD_REACTORS
330
C
102
}
330
C
100
AcDbDictionary
281
     1
  3
ByBlock
350
19
  3
ByLayer
350
11
  3
Global
350
21
  0
DICTIONARY
  5
66
102
{ACAD_REACTORS
330
C
102
}
330
C
100
AcDbDictionary
281
     1
  3
Standard
350
67
  0
DICTIONARY
  5
5F
102
{ACAD_REACTORS
330
C
102
}
330
C
100
AcDbDictionary
281
     1
  3
Standard
350
60
  0
DICTIONARY
  5
61
102
{ACAD_REACTORS
330
C
102
}
330
C
100
AcDbDictionary
281
     1
  0
ACDBDICTIONARYWDFLT
  5
E
102
{ACAD_REACTORS
330
C
102
}
330
C
100
AcDbDictionary
281
     1
  3
Normal
350
F
100
AcDbDictionaryWithDefault
340
F
  0
DICTIONARY
  5
42
102
{ACAD_REACTORS
330
C
102
}
330
C
100
AcDbDictionary
281
     1
  3
A0
350
43
  3
A1
350
44
  3
A2
350
45
  3
A3
350
46
  3
A4
350
47
  3
A5
350
48
  3
A6
350
49
  3
A7
350
4A
  3
A8
350
4B
  3
A9
350
4C
  3
B0
350
4D
  3
B1
350
4E
  3
B2
350
4F
  3
B3
350
50
  3
B4
350
51
  3
B5
350
52
  3
B6
350
53
  0
DICTIONARY
  5
68
102
{ACAD_REACTORS
330
C
102
}
330
C
100
AcDbDictionary
281
     1
  3
Imperial24
350
69
  0
DICTIONARY
  5
64
102
{ACAD_REACTORS
330
C
102
}
330
C
100
AcDbDictionary
281
     1
  3
Standard
350
65
  0
DICTIONARY
  5
29
102
{ACAD_REACTORS
330
C
102
}
330
C
100
AcDbDictionary
281
     1
  3
2dWireframe
350
2F
  3
Basic
350
2E
  3
Brighten
350
35
  3
ColorChange
350
39
  3
Conceptual
350
32
  3
Dim
350
34
  3
EdgeColorOff
350
41
  3
Facepattern
350
38
  3
Flat
350
2A
  3
FlatWithEdges
350
2B
  3
Gouraud
350
2C
  3
GouraudWithEdges
350
2D
  3
Hidden
350
31
  3
JitterOff
350
3F
  3
Linepattern
350
37
  3
OverhangOff
350
40
  3
Realistic
350
33
  3
Shaded
350
3E
  3
Shaded with edges
350
3D
  3
Shades of Gray
350
3A
  3
Sketchy
350
3B
  3
Thicken
350
36
  3
Wireframe
350
30
  3
X-Ray
350
3C
  0
XRECORD
  5
2BA
102
{ACAD_REACTORS
330
C
102
}
330
C
100
AcDbXrecord
280
     1
 90
        1
330
65
  0
DICTIONARY
  5
7B
102
{ACAD_REACTORS
330
C
102
}
330
C
100
AcDbDictionary
281
     1
  3
CANNOSCALE
350
80
  3
CMLEADERSTYLE
350
7D
  3
CTABLESTYLE
350
7C
  3
CVIEWDETAILSTYLE
350
7E
  3
CVIEWSECTIONSTYLE
350
7F
  3
XCLIPFRAME
350
81
  0
DICTIONARY
  5
2AC
102
{ACAD_REACTORS
330
C
102
}
330
C
100
AcDbDictionary
281
     1
  3
DRAWING_TOOL
350
2B0
  3
REVIT_CATEGORY_MAPPING
350
2AE
  3
REVIT_SUB_CATEGORY_MAPPING
350
2AF
  3
REVIT_TYPE_MAPPING
350
2AD
  0
SORTENTSTABLE
  5
2B2
102
{ACAD_REACTORS
330
2B1
102
}
330
2B1
100
AcDbSortentsTable
330
70
  0
ACDBDETAILVIEWSTYLE
  5
6B
102
{ACAD_XDICTIONARY
360
2F0
102
}
102
{ACAD_REACTORS
330
6A
102
}
330
6A
100
AcDbModelDocViewStyle
 70
     0
  3
Imperial24
290
     0
100
AcDbDetailViewStyle
 70
     0
 71
     0
 90
        3
 71
     1
340
55
 62
   256
 40
0.24
340
0
 62
   256
 40
0.24
300

 40
0.36
280
     3
 71
     2
340
5D
 90
       25
 62
   256
 71
     3
340
55
 62
   256
 40
0.24
 90
        1
 40
0.75
 90
        1
300
%<\AcVar ViewType \f "%tc1">% %<\AcVar ViewDetailId>%\PSCALE %<\AcVar ViewScale \f "%sn">%
 71
     4
340
5D
 90
       25
 62
   256
340
5D
 90
       25
 62
   256
280
     0
  0
LAYOUT
  5
6F
102
{ACAD_REACTORS
330
62
102
}
330
62
100
AcDbPlotSettings
  1

  2

  4

  6

 40
0.0
 41
0.0
 42
0.0
 43
0.0
 44
0.0
 45
0.0
 46
0.0
 47
0.0
 48
0.0
 49
0.0
140
0.0
141
0.0
142
1.0
143
1.0
 70
   688
 72
     0
 73
     0
 74
     5
  7

 75
    16
147
1.0
 76
     0
 77
     2
 78
   300
148
0.0
149
0.0
100
AcDbLayout
  1
Layout1
 70
     1
 71
     1
 10
0.0
 20
0.0
 11
12.0
 21
9.0
 12
0.0
 22
0.0
 32
0.0
 14
0.0
 24
0.0
 34
0.0
 15
0.0
 25
0.0
 35
0.0
146
0.0
 13
0.0
 23
0.0
 33
0.0
 16
1.0
 26
0.0
 36
0.0
 17
0.0
 27
1.0
 37
0.0
 76
     0
330
6C
  0
LAYOUT
  5
77
102
{ACAD_REACTORS
330
62
102
}
330
62
100
AcDbPlotSettings
  1

  2

  4

  6

 40
0.0
 41
0.0
 42
0.0
 43
0.0
 44
0.0
 45
0.0
 46
0.0
 47
0.0
 48
0.0
 49
0.0
140
0.0
141
0.0
142
1.0
143
1.0
 70
   688
 72
     0
 73
     0
 74
     5
  7

 75
    16
147
1.0
 76
     0
 77
     2
 78
   300
148
0.0
149
0.0
100
AcDbLayout
  1
Layout2
 70
     1
 71
     2
 10
0.0
 20
0.0
 11
12.0
 21
9.0
 12
0.0
 22
0.0
 32
0.0
 14
0.0
 24
0.0
 34
0.0
 15
0.0
 25
0.0
 35
0.0
146
0.0
 13
0.0
 23
0.0
 33
0.0
 16
1.0
 26
0.0
 36
0.0
 17
0.0
 27
1.0
 37
0.0
 76
     0
330
74
  0
LAYOUT
  5
73
102
{ACAD_REACTORS
330
62
102
}
330
62
100
AcDbPlotSettings
  1

  2

  4

  6

 40
0.0
 41
0.0
 42
0.0
 43
0.0
 44
0.0
 45
0.0
 46
0.0
 47
0.0
 48
0.0
 49
0.0
140
0.0
141
0.0
142
1.0
143
1.0
 70
  1712
 72
     0
 73
     0
 74
     0
  7

 75
     0
147
1.0
 76
     0
 77
     2
 78
   300
148
0.0
149
0.0
100
AcDbLayout
  1
Model
 70
     1
 71
     0
 10
0.0
 20
0.0
 11
12.0
 21
9.0
 12
0.0
 22
0.0
 32
0.0
 14
0.0
 24
0.0
 34
0.0
 15
0.0
 25
0.0
 35
0.0
146
0.0
 13
0.0
 23
0.0
 33
0.0
 16
1.0
 26
0.0
 36
0.0
 17
0.0
 27
1.0
 37
0.0
 76
     0
330
70
  0
MATERIAL
  5
19
102
{ACAD_XDICTIONARY
360
1A
102
}
102
{ACAD_REACTORS
330
10
102
}
330
10
100
AcDbMaterial
  1
ByBlock
 72
     0
 43
0.0208333333333333
 43
0.0
 43
0.0
 43
0.0
 43
0.0
 43
0.0208333333333333
 43
0.0
 43
0.0
 43
0.0
 43
0.0
 43
1.0
 43
0.0
 43
0.0
 43
0.0
 43
0.0
 43
1.0
 77
     0
 47
0.0208333333333333
 47
0.0
 47
0.0
 47
0.0
 47
0.0
 47
0.0208333333333333
 47
0.0
 47
0.0
 47
0.0
 47
0.0
 47
1.0
 47
0.0
 47
0.0
 47
0.0
 47
0.0
 47
1.0
171
     0
 49
0.0208333333333333
 49
0.0
 49
0.0
 49
0.0
 49
0.0
 49
0.0208333333333333
 49
0.0
 49
0.0
 49
0.0
 49
0.0
 49
1.0
 49
0.0
 49
0.0
 49
0.0
 49
0.0
 49
1.0
175
     0
142
0.0208333333333333
142
0.0
142
0.0
142
0.0
142
0.0
142
0.0208333333333333
142
0.0
142
0.0
142
0.0
142
0.0
142
1.0
142
0.0
142
0.0
142
0.0
142
0.0
142
1.0
179
     0
144
0.0208333333333333
144
0.0
144
0.0
144
0.0
144
0.0
144
0.0208333333333333
144
0.0
144
0.0
144
0.0
144
0.0
144
1.0
144
0.0
144
0.0
144
0.0
144
0.0
144
1.0
147
0.0208333333333333
147
0.0
147
0.0
147
0.0
147
0.0
147
0.0208333333333333
147
0.0
147
0.0
147
0.0
147
0.0
147
1.0
147
0.0
147
0.0
147
0.0
147
0.0
147
1.0
  0
MATERIAL
  5
11
102
{ACAD_XDICTIONARY
360
12
102
}
102
{ACAD_REACTORS
330
10
102
}
330
10
100
AcDbMaterial
  1
ByLayer
 72
     0
 43
0.0208333333333333
 43
0.0
 43
0.0
 43
0.0
 43
0.0
 43
0.0208333333333333
 43
0.0
 43
0.0
 43
0.0
 43
0.0
 43
1.0
 43
0.0
 43
0.0
 43
0.0
 43
0.0
 43
1.0
 77
     0
 47
0.0208333333333333
 47
0.0
 47
0.0
 47
0.0
 47
0.0
 47
0.0208333333333333
 47
0.0
 47
0.0
 47
0.0
 47
0.0
 47
1.0
 47
0.0
 47
0.0
 47
0.0
 47
0.0
 47
1.0
171
     0
 49
0.0208333333333333
 49
0.0
 49
0.0
 49
0.0
 49
0.0
 49
0.0208333333333333
 49
0.0
 49
0.0
 49
0.0
 49
0.0
 49
1.0
 49
0.0
 49
0.0
 49
0.0
 49
0.0
 49
1.0
175
     0
142
0.0208333333333333
142
0.0
142
0.0
142
0.0
142
0.0
142
0.0208333333333333
142
0.0
142
0.0
142
0.0
142
0.0
142
1.0
142
0.0
142
0.0
142
0.0
142
0.0
142
1.0
179
     0
144
0.0208333333333333
144
0.0
144
0.0
144
0.0
144
0.0
144
0.0208333333333333
144
0.0
144
0.0
144
0.0
144
0.0
144
1.0
144
0.0
144
0.0
144
0.0
144
0.0
144
1.0
147
0.0208333333333333
147
0.0
147
0.0
147
0.0
147
0.0
147
0.0208333333333333
147
0.0
147
0.0
147
0.0
147
0.0
147
1.0
147
0.0
147
0.0
147
0.0
147
0.0
147
1.0
  0
MATERIAL
  5
21
102
{ACAD_XDICTIONARY
360
22
102
}
102
{ACAD_REACTORS
330
10
102
}
330
10
100
AcDbMaterial
  1
Global
 72
     0
 43
0.0208333333333333
 43
0.0
 43
0.0
 43
0.0
 43
0.0
 43
0.0208333333333333
 43
0.0
 43
0.0
 43
0.0
 43
0.0
 43
1.0
 43
0.0
 43
0.0
 43
0.0
 43
0.0
 43
1.0
 77
     0
 47
0.0208333333333333
 47
0.0
 47
0.0
 47
0.0
 47
0.0
 47
0.0208333333333333
 47
0.0
 47
0.0
 47
0.0
 47
0.0
 47
1.0
 47
0.0
 47
0.0
 47
0.0
 47
0.0
 47
1.0
171
     0
 49
0.0208333333333333
 49
0.0
 49
0.0
 49
0.0
 49
0.0
 49
0.0208333333333333
 49
0.0
 49
0.0
 49
0.0
 49
0.0
 49
1.0
 49
0.0
 49
0.0
 49
0.0
 49
0.0
 49
1.0
175
     0
142
0.0208333333333333
142
0.0
142
0.0
142
0.0
142
0.0
142
0.0208333333333333
142
0.0
142
0.0
142
0.0
142
0.0
142
1.0
142
0.0
142
0.0
142
0.0
142
0.0
142
1.0
179
     0
144
0.0208333333333333
144
0.0
144
0.0
144
0.0
144
0.0
144
0.0208333333333333
144
0.0
144
0.0
144
0.0
144
0.0
144
1.0
144
0.0
144
0.0
144
0.0
144
0.0
144
1.0
147
0.0208333333333333
147
0.0
147
0.0
147
0.0
147
0.0
147
0.0208333333333333
147
0.0
147
0.0
147
0.0
147
0.0
147
1.0
147
0.0
147
0.0
147
0.0
147
0.0
147
1.0
  0
MLEADERSTYLE
  5
67
102
{ACAD_XDICTIONARY
360
2EC
102
}
102
{ACAD_REACTORS
330
66
102
}
330
66
100
AcDbMLeaderStyle
170
     2
171
     1
172
     0
 90
        2
 40
0.0
 41
0.0
173
     1
 91
-1056964608
340
5B
 92
       -2
290
     1
 42
0.09
291
     1
 43
0.36
  3
Standard
 44
0.18
300

342
55
174
     1
178
     6
175
     1
176
     0
 93
-1056964608
 45
0.18
292
     0
297
     0
 46
0.18
 94
-1056964608
 47
1.0
 49
1.0
140
1.0
293
     1
141
0.0
294
     1
177
     0
142
1.0
295
     0
296
     0
143
0.125
1001
ACAD_MLEADERVER
1070
     2
  0
MLINESTYLE
  5
60
102
{ACAD_REACTORS
330
5F
102
}
330
5F
100
AcDbMlineStyle
  2
STANDARD
 70
     0
  3

 62
   256
 51
90.0
 52
90.0
 71
     2
 49
0.5
 62
   256
  6
BYLAYER
 49
-0.5
 62
   256
  6
BYLAYER
  0
ACDBPLACEHOLDER
  5
F
102
{ACAD_REACTORS
330
E
102
}
330
E
  0
SCALE
  5
43
102
{ACAD_REACTORS
330
42
102
}
330
42
100
AcDbScale
 70
     0
300
1:1
140
1.0
141
1.0
290
     1
  0
SCALE
  5
44
102
{ACAD_REACTORS
330
42
102
}
330
42
100
AcDbScale
 70
     0
300
1/128" = 1'-0"
140
0.0078125
141
12.0
290
     0
  0
SCALE
  5
45
102
{ACAD_REACTORS
330
42
102
}
330
42
100
AcDbScale
 70
     0
300
1/64" = 1'-0"
140
0.015625
141
12.0
290
     0
  0
SCALE
  5
46
102
{ACAD_REACTORS
330
42
102
}
330
42
100
AcDbScale
 70
     0
300
1/32" = 1'-0"
140
0.03125
141
12.0
290
     0
  0
SCALE
  5
47
102
{ACAD_REACTORS
330
42
102
}
330
42
100
AcDbScale
 70
     0
300
1/16" = 1'-0"
140
0.0625
141
12.0
290
     0
  0
SCALE
  5
48
102
{ACAD_REACTORS
330
42
102
}
330
42
100
AcDbScale
 70
     0
300
3/32" = 1'-0"
140
0.09375
141
12.0
290
     0
  0
SCALE
  5
49
102
{ACAD_REACTORS
330
42
102
}
330
42
100
AcDbScale
 70
     0
300
1/8" = 1'-0"
140
0.125
141
12.0
290
     0
  0
SCALE
  5
4A
102
{ACAD_REACTORS
330
42
102
}
330
42
100
AcDbScale
 70
     0
300
3/16" = 1'-0"
140
0.1875
141
12.0
290
     0
  0
SCALE
  5
4B
102
{ACAD_REACTORS
330
42
102
}
330
42
100
AcDbScale
 70
     0
300
1/4" = 1'-0"
140
0.25
141
12.0
290
     0
  0
SCALE
  5
4C
102
{ACAD_REACTORS
330
42
102
}
330
42
100
AcDbScale
 70
     0
300
3/8" = 1'-0"
140
0.375
141
12.0
290
     0
  0
SCALE
  5
4D
102
{ACAD_REACTORS
330
42
102
}
330
42
100
AcDbScale
 70
     0
300
1/2" = 1'-0"
140
0.5
141
12.0
290
     0
  0
SCALE
  5
4E
102
{ACAD_REACTORS
330
42
102
}
330
42
100
AcDbScale
 70
     0
300
3/4" = 1'-0"
140
0.75
141
12.0
290
     0
  0
SCALE
  5
4F
102
{ACAD_REACTORS
330
42
102
}
330
42
100
AcDbScale
 70
     0
300
1" = 1'-0"
140
1.0
141
12.0
290
     0
  0
SCALE
  5
50
102
{ACAD_REACTORS
330
42
102
}
330
42
100
AcDbScale
 70
     0
300
1-1/2" = 1'-0"
140
1.5
141
12.0
290
     0
  0
SCALE
  5
51
102
{ACAD_REACTORS
330
42
102
}
330
42
100
AcDbScale
 70
     0
300
3" = 1'-0"
140
3.0
141
12.0
290
     0
  0
SCALE
  5
52
102
{ACAD_REACTORS
330
42
102
}
330
42
100
AcDbScale
 70
     0
300
6" = 1'-0"
140
6.0
141
12.0
290
     0
  0
SCALE
  5
53
102
{ACAD_REACTORS
330
42
102
}
330
42
100
AcDbScale
 70
     0
300
1'-0" = 1'-0"
140
12.0
141
12.0
290
     0
  0
ACDBSECTIONVIEWSTYLE
  5
69
102
{ACAD_XDICTIONARY
360
2EE
102
}
102
{ACAD_REACTORS
330
68
102
}
330
68
100
AcDbModelDocViewStyle
 70
     0
  3
Imperial24
290
     0
100
AcDbSectionViewStyle
 70
     0
 71
     0
 90
       78
 71
     1
340
55
 62
   256
 40
0.24
340
0
340
0
 62
   256
 40
0.24
300
I, O, Q, S, X, Z
 40
0.48
 90
        3
 40
0.18
 90
        1
 71
     2
340
5D
 90
       25
 62
   256
340
5D
 90
       50
 62
   256
 40
0.24
 40
0.0
 40
0.24
 71
     3
340
55
 62
   256
 40
0.24
 90
        1
 40
0.75
 90
        1
300
%<\AcVar ViewType \f "%tc1">% %<\AcVar ViewSectionStartId>%-%<\AcVar ViewSectionEndId>%\PSCALE %<\AcVar ViewScale \f "%sn">%
 71
     4
 62
   256
 62
   257
300
ANSI31
 40
1.0
 90
        0
290
     0
290
     0
 90
        6
 40
0.0
 40
1.570796326794896
 40
0.2617993877991494
 40
1.308996938995747
 40
-0.2617993877991494
 40
1.832595714594046
  0
TABLESTYLE
  5
65
102
{ACAD_XDICTIONARY
360
2B5
102
}
102
{ACAD_REACTORS
330
64
102
}
330
64
100
AcDbTableStyle
  3
Standard
 70
     0
 71
     0
 40
0.06
 41
0.06
280
     0
281
     0
  7
Standard
140
0.18
170
     2
 62
     0
 63
     7
283
     0
 90
      512
 91
        0
  1

274
    -2
284
     1
 64
     0
275
    -2
285
     1
 65
     0
276
    -2
286
     1
 66
     0
277
    -2
287
     1
 67
     0
278
    -2
288
     1
 68
     0
279
    -2
289
     1
 69
     0
  7
Standard
140
0.25
170
     5
 62
     0
 63
     7
283
     0
 90
      512
 91
        0
  1

274
    -2
284
     1
 64
     0
275
    -2
285
     1
 65
     0
276
    -2
286
     1
 66
     0
277
    -2
287
     1
 67
     0
278
    -2
288
     1
 68
     0
279
    -2
289
     1
 69
     0
  7
Standard
140
0.18
170
     5
 62
     0
 63
     7
283
     0
 90
      512
 91
        0
  1

274
    -2
284
     1
 64
     0
275
    -2
285
     1
 65
     0
276
    -2
286
     1
 66
     0
277
    -2
287
     1
 67
     0
278
    -2
288
     1
 68
     0
279
    -2
289
     1
 69
     0
  0
VISUALSTYLE
  5
2F
102
{ACAD_XDICTIONARY
360
2C5
102
}
102
{ACAD_REACTORS
330
29
102
}
330
29
100
AcDbVisualStyle
  2
2dWireframe
 70
     4
 71
     0
 72
     2
 73
     0
 90
        0
 40
-0.6
 41
-30.0
 62
     5
 63
     7
421
 16777215
 74
     1
 91
        4
 64
     7
 65
   257
 75
     1
175
     1
 42
1.0
 92
        0
 66
   257
 43
1.0
 76
     1
 77
     6
 78
     2
 67
     7
 79
     5
170
     0
171
     0
290
     0
174
     0
 93
        1
 44
0.0
173
     0
291
     0
 45
0.0
1001
ACAD
1000
AcDbSavedByObjectVersion
1070
     0
  0
VISUALSTYLE
  5
2E
102
{ACAD_XDICTIONARY
360
2C3
102
}
102
{ACAD_REACTORS
330
29
102
}
330
29
100
AcDbVisualStyle
  2
Basic
 70
     7
 71
     1
 72
     0
 73
     1
 90
        0
 40
-0.6
 41
-30.0
 62
     5
 63
     7
421
 16777215
 74
     0
 91
        4
 64
     7
 65
   257
 75
     1
175
     1
 42
1.0
 92
        8
 66
     7
 43
1.0
 76
     1
 77
     6
 78
     2
 67
     7
 79
     5
170
     0
171
     0
290
     0
174
     0
 93
        1
 44
0.0
173
     0
291
     1
 45
0.0
1001
ACAD
1000
AcDbSavedByObjectVersion
1070
     0
  0
VISUALSTYLE
  5
35
102
{ACAD_XDICTIONARY
360
2D1
102
}
102
{ACAD_REACTORS
330
29
102
}
330
29
100
AcDbVisualStyle
  2
Brighten
 70
    12
 71
     2
 72
     2
 73
     0
 90
        0
 40
-0.6
 41
-30.0
 62
     5
 63
     7
421
 16777215
 74
     1
 91
        4
 64
     7
 65
   257
 75
     1
175
     1
 42
1.0
 92
        8
 66
     7
 43
1.0
 76
     1
 77
     6
 78
     2
 67
     7
 79
     5
170
     0
171
     0
290
     0
174
     0
 93
        1
 44
50.0
173
     0
291
     1
 45
0.0
1001
ACAD
1000
AcDbSavedByObjectVersion
1070
     0
  0
VISUALSTYLE
  5
39
102
{ACAD_XDICTIONARY
360
2D9
102
}
102
{ACAD_REACTORS
330
29
102
}
330
29
100
AcDbVisualStyle
  2
ColorChange
 70
    16
 71
     2
 72
     2
 73
     3
 90
        0
 40
-0.6
 41
-30.0
 62
     5
 63
     8
421
  8421504
 74
     1
 91
        4
 64
     7
 65
   257
 75
     1
175
     1
 42
1.0
 92
        8
 66
     8
424
  8421504
 43
1.0
 76
     1
 77
     6
 78
     2
 67
     7
 79
     5
170
     0
171
     0
290
     0
174
     0
 93
        1
 44
0.0
173
     0
291
     1
 45
0.0
1001
ACAD
1000
AcDbSavedByObjectVersion
1070
     0
  0
VISUALSTYLE
  5
32
102
{ACAD_XDICTIONARY
360
2CB
102
}
102
{ACAD_REACTORS
330
29
102
}
330
29
100
AcDbVisualStyle
  2
Conceptual
 70
     9
 71
     3
 72
     2
 73
     0
 90
        0
 40
-0.6
 41
-30.0
 62
     5
 63
     7
421
 16777215
 74
     2
 91
        2
 64
     7
 65
   257
 75
     1
175
     1
 42
179.0
 92
        8
 66
     7
 43
1.0
 76
     1
 77
     6
 78
     2
 67
     7
 79
     3
170
     0
171
     0
290
     0
174
     0
 93
        1
 44
0.0
173
     0
291
     0
 45
0.0
1001
ACAD
1000
AcDbSavedByObjectVersion
1070
     0
  0
VISUALSTYLE
  5
34
102
{ACAD_XDICTIONARY
360
2CF
102
}
102
{ACAD_REACTORS
330
29
102
}
330
29
100
AcDbVisualStyle
  2
Dim
 70
    11
 71
     2
 72
     2
 73
     0
 90
        0
 40
-0.6
 41
-30.0
 62
     5
 63
     7
421
 16777215
 74
     1
 91
        4
 64
     7
 65
   257
 75
     1
175
     1
 42
1.0
 92
        8
 66
     7
 43
1.0
 76
     1
 77
     6
 78
     2
 67
     7
 79
     5
170
     0
171
     0
290
     0
174
     0
 93
        1
 44
-50.0
173
     0
291
     1
 45
0.0
1001
ACAD
1000
AcDbSavedByObjectVersion
1070
     0
  0
VISUALSTYLE
  5
41
102
{ACAD_XDICTIONARY
360
2E9
102
}
102
{ACAD_REACTORS
330
29
102
}
330
29
100
AcDbVisualStyle
  2
EdgeColorOff
 70
    22
 71
     2
 72
     2
 73
     0
 90
        0
 40
-0.6
 41
-30.0
 62
     5
 63
     7
421
 16777215
 74
     1
 91
        4
 64
     7
 65
   257
 75
     1
175
     1
 42
1.0
 92
        8
 66
     7
 43
1.0
 76
     1
 77
     6
 78
     2
 67
     7
 79
     5
170
     0
171
     0
290
     0
174
     0
 93
        1
 44
0.0
173
     0
291
     1
 45
0.0
1001
ACAD
1000
AcDbSavedByObjectVersion
1070
     0
  0
VISUALSTYLE
  5
38
102
{ACAD_XDICTIONARY
360
2D7
102
}
102
{ACAD_REACTORS
330
29
102
}
330
29
100
AcDbVisualStyle
  2
Facepattern
 70
    15
 71
     2
 72
     2
 73
     0
 90
        0
 40
-0.6
 41
-30.0
 62
     5
 63
     7
421
 16777215
 74
     1
 91
        4
 64
     7
 65
   257
 75
     1
175
     1
 42
1.0
 92
        8
 66
     7
 43
1.0
 76
     1
 77
     6
 78
     2
 67
     7
 79
     5
170
     0
171
     0
290
     0
174
     0
 93
        1
 44
0.0
173
     0
291
     1
 45
0.0
1001
ACAD
1000
AcDbSavedByObjectVersion
1070
     0
  0
VISUALSTYLE
  5
2A
102
{ACAD_XDICTIONARY
360
2BB
102
}
102
{ACAD_REACTORS
330
29
102
}
330
29
100
AcDbVisualStyle
  2
Flat
 70
     0
 71
     2
 72
     1
 73
     1
 90
        2
 40
-0.6
 41
30.0
 62
     5
 63
     7
421
 16777215
 74
     0
 91
        0
 64
     7
 65
   257
 75
     1
175
     1
 42
1.0
 92
        8
 66
     7
 43
1.0
 76
     1
 77
     6
 78
     2
 67
     7
 79
     5
170
     0
171
     0
290
     0
174
     0
 93
       13
 44
0.0
173
     0
291
     1
 45
0.0
1001
ACAD
1000
AcDbSavedByObjectVersion
1070
     0
  0
VISUALSTYLE
  5
2B
102
{ACAD_XDICTIONARY
360
2BD
102
}
102
{ACAD_REACTORS
330
29
102
}
330
29
100
AcDbVisualStyle
  2
FlatWithEdges
 70
     1
 71
     2
 72
     1
 73
     1
 90
        2
 40
-0.6
 41
30.0
 62
     5
 63
     7
421
 16777215
 74
     1
 91
        0
 64
     7
 65
   257
 75
     1
175
     1
 42
1.0
 92
        0
 66
   257
 43
1.0
 76
     1
 77
     6
 78
     2
 67
     7
 79
     5
170
     0
171
     0
290
     0
174
     0
 93
       13
 44
0.0
173
     0
291
     1
 45
0.0
1001
ACAD
1000
AcDbSavedByObjectVersion
1070
     0
  0
VISUALSTYLE
  5
2C
102
{ACAD_XDICTIONARY
360
2BF
102
}
102
{ACAD_REACTORS
330
29
102
}
330
29
100
AcDbVisualStyle
  2
Gouraud
 70
     2
 71
     2
 72
     2
 73
     1
 90
        2
 40
-0.6
 41
30.0
 62
     5
 63
     7
421
 16777215
 74
     0
 91
        0
 64
     7
 65
   257
 75
     1
175
     1
 42
1.0
 92
        0
 66
     7
 43
1.0
 76
     1
 77
     6
 78
     2
 67
     7
 79
     5
170
     0
171
     0
290
     0
174
     0
 93
       13
 44
0.0
173
     0
291
     1
 45
0.0
1001
ACAD
1000
AcDbSavedByObjectVersion
1070
     0
  0
VISUALSTYLE
  5
2D
102
{ACAD_XDICTIONARY
360
2C1
102
}
102
{ACAD_REACTORS
330
29
102
}
330
29
100
AcDbVisualStyle
  2
GouraudWithEdges
 70
     3
 71
     2
 72
     2
 73
     1
 90
        2
 40
-0.6
 41
30.0
 62
     5
 63
     7
421
 16777215
 74
     1
 91
        0
 64
     7
 65
   257
 75
     1
175
     1
 42
1.0
 92
        0
 66
   257
 43
1.0
 76
     1
 77
     6
 78
     2
 67
     7
 79
     5
170
     0
171
     0
290
     0
174
     0
 93
       13
 44
0.0
173
     0
291
     1
 45
0.0
1001
ACAD
1000
AcDbSavedByObjectVersion
1070
     0
  0
VISUALSTYLE
  5
31
102
{ACAD_XDICTIONARY
360
2C9
102
}
102
{ACAD_REACTORS
330
29
102
}
330
29
100
AcDbVisualStyle
  2
Hidden
 70
     6
 71
     1
 72
     2
 73
     2
 90
        0
 40
-0.6
 41
-30.0
 62
     5
 63
     7
421
 16777215
 74
     2
 91
        2
 64
     7
 65
   257
 75
     2
175
     1
 42
40.0
 92
        0
 66
   257
 43
1.0
 76
     1
 77
     6
 78
     2
 67
     7
 79
     3
170
     0
171
     0
290
     0
174
     0
 93
        1
 44
0.0
173
     0
291
     0
 45
0.0
1001
ACAD
1000
AcDbSavedByObjectVersion
1070
     0
  0
VISUALSTYLE
  5
3F
102
{ACAD_XDICTIONARY
360
2E5
102
}
102
{ACAD_REACTORS
330
29
102
}
330
29
100
AcDbVisualStyle
  2
JitterOff
 70
    20
 71
     2
 72
     2
 73
     0
 90
        0
 40
-0.6
 41
-30.0
 62
     5
 63
     7
421
 16777215
 74
     1
 91
        4
 64
     7
 65
   257
 75
     1
175
     1
 42
1.0
 92
       10
 66
     7
 43
1.0
 76
     1
 77
     6
 78
     2
 67
     7
 79
     5
170
     0
171
     0
290
     0
174
     0
 93
        1
 44
0.0
173
     0
291
     1
 45
0.0
1001
ACAD
1000
AcDbSavedByObjectVersion
1070
     0
  0
VISUALSTYLE
  5
37
102
{ACAD_XDICTIONARY
360
2D5
102
}
102
{ACAD_REACTORS
330
29
102
}
330
29
100
AcDbVisualStyle
  2
Linepattern
 70
    14
 71
     2
 72
     2
 73
     0
 90
        0
 40
-0.6
 41
-30.0
 62
     5
 63
     7
421
 16777215
 74
     1
 91
        4
 64
     7
 65
   257
 75
     7
175
     7
 42
1.0
 92
        8
 66
     7
 43
1.0
 76
     1
 77
     6
 78
     2
 67
     7
 79
     5
170
     0
171
     0
290
     0
174
     0
 93
        1
 44
0.0
173
     0
291
     1
 45
0.0
1001
ACAD
1000
AcDbSavedByObjectVersion
1070
     0
  0
VISUALSTYLE
  5
40
102
{ACAD_XDICTIONARY
360
2E7
102
}
102
{ACAD_REACTORS
330
29
102
}
330
29
100
AcDbVisualStyle
  2
OverhangOff
 70
    21
 71
     2
 72
     2
 73
     0
 90
        0
 40
-0.6
 41
-30.0
 62
     5
 63
     7
421
 16777215
 74
     1
 91
        4
 64
     7
 65
   257
 75
     1
175
     1
 42
1.0
 92
        9
 66
     7
 43
1.0
 76
     1
 77
     6
 78
     2
 67
     7
 79
     5
170
     0
171
     0
290
     0
174
     0
 93
        1
 44
0.0
173
     0
291
     1
 45
0.0
1001
ACAD
1000
AcDbSavedByObjectVersion
1070
     0
  0
VISUALSTYLE
  5
33
102
{ACAD_XDICTIONARY
360
2CD
102
}
102
{ACAD_REACTORS
330
29
102
}
330
29
100
AcDbVisualStyle
  2
Realistic
 70
     8
 71
     2
 72
     3
 73
     0
 90
        2
 40
-0.6
 41
30.0
 62
     5
 63
     7
421
 16777215
 74
     0
 91
        0
 64
     7
 65
   257
 75
     1
175
     1
 42
1.0
 92
        8
 66
   257
 43
1.0
 76
     1
 77
     6
 78
     2
 67
     7
 79
     3
170
     0
171
     0
290
     0
174
     0
 93
       13
 44
0.0
173
     0
291
     0
 45
0.0
1001
ACAD
1000
AcDbSavedByObjectVersion
1070
     0
  0
VISUALSTYLE
  5
3E
102
{ACAD_XDICTIONARY
360
2E3
102
}
102
{ACAD_REACTORS
330
29
102
}
330
29
100
AcDbVisualStyle
  2
Shaded
 70
    27
 71
     2
 72
     2
 73
     1
 90
        2
 40
-0.6
 41
30.0
 62
     5
 63
     7
421
 16777215
 74
     0
 91
        4
 64
     7
 65
   257
 75
     1
175
     1
 42
1.0
 92
        8
 66
   257
 43
1.0
 76
     1
 77
     6
 78
     2
 67
     8
425
  7895160
 79
     3
170
     0
171
     0
290
     0
174
     0
 93
        5
 44
0.0
173
     0
291
     0
 45
0.0
1001
ACAD
1000
AcDbSavedByObjectVersion
1070
     0
  0
VISUALSTYLE
  5
3D
102
{ACAD_XDICTIONARY
360
2E1
102
}
102
{ACAD_REACTORS
330
29
102
}
330
29
100
AcDbVisualStyle
  2
Shaded with edges
 70
    26
 71
     2
 72
     2
 73
     1
 90
        2
 40
-0.6
 41
30.0
 62
     5
 63
     7
421
 16777215
 74
     1
 91
        2
 64
     7
 65
   257
 75
     2
175
     1
 42
1.0
 92
        8
 66
   257
 43
1.0
 76
     1
 77
     6
 78
     2
 67
     7
 79
     3
170
     0
171
     0
290
     0
174
     0
 93
        5
 44
0.0
173
     0
291
     0
 45
0.0
1001
ACAD
1000
AcDbSavedByObjectVersion
1070
     0
  0
VISUALSTYLE
  5
3A
102
{ACAD_XDICTIONARY
360
2DB
102
}
102
{ACAD_REACTORS
330
29
102
}
330
29
100
AcDbVisualStyle
  2
Shades of Gray
 70
    23
 71
     2
 72
     2
 73
     3
 90
        0
 40
-0.6
 41
-30.0
 62
     5
 63
     7
421
 16777215
 74
     2
 91
        2
 64
     7
 65
     7
 75
     1
175
     1
 42
40.0
 92
        8
 66
     7
 43
1.0
 76
     1
 77
     6
 78
     2
 67
     7
 79
     3
170
     0
171
     0
290
     0
174
     0
 93
        1
 44
0.0
173
     0
291
     0
 45
0.0
1001
ACAD
1000
AcDbSavedByObjectVersion
1070
     0
  0
VISUALSTYLE
  5
3B
102
{ACAD_XDICTIONARY
360
2DD
102
}
102
{ACAD_REACTORS
330
29
102
}
330
29
100
AcDbVisualStyle
  2
Sketchy
 70
    24
 71
     1
 72
     2
 73
     2
 90
        0
 40
-0.6
 41
-30.0
 62
     5
 63
     7
421
 16777215
 74
     2
 91
        2
 64
     7
 65
     7
 75
     1
175
     1
 42
40.0
 92
       11
 66
     7
 43
1.0
 76
     1
 77
     6
 78
     2
 67
     7
 79
     6
170
     0
171
     0
290
     0
174
     0
 93
        1
 44
0.0
173
     0
291
     0
 45
0.0
1001
ACAD
1000
AcDbSavedByObjectVersion
1070
     0
  0
VISUALSTYLE
  5
36
102
{ACAD_XDICTIONARY
360
2D3
102
}
102
{ACAD_REACTORS
330
29
102
}
330
29
100
AcDbVisualStyle
  2
Thicken
 70
    13
 71
     2
 72
     2
 73
     0
 90
        0
 40
-0.6
 41
-30.0
 62
     5
 63
     7
421
 16777215
 74
     1
 91
        4
 64
     7
 65
   257
 75
     1
175
     1
 42
1.0
 92
       12
 66
     7
 43
1.0
 76
     1
 77
     6
 78
     2
 67
     7
 79
     5
170
     0
171
     0
290
     0
174
     0
 93
        1
 44
0.0
173
     0
291
     1
 45
0.0
1001
ACAD
1000
AcDbSavedByObjectVersion
1070
     0
  0
VISUALSTYLE
  5
30
102
{ACAD_XDICTIONARY
360
2C7
102
}
102
{ACAD_REACTORS
330
29
102
}
330
29
100
AcDbVisualStyle
  2
Wireframe
 70
     5
 71
     0
 72
     2
 73
     0
 90
        0
 40
-0.6
 41
-30.0
 62
     5
 63
     7
421
 16777215
 74
     1
 91
        4
 64
     7
 65
   257
 75
     1
175
     1
 42
1.0
 92
        0
 66
   257
 43
1.0
 76
     1
 77
     6
 78
     2
 67
     7
 79
     3
170
     0
171
     0
290
     0
174
     0
 93
        1
 44
0.0
173
     0
291
     0
 45
0.0
1001
ACAD
1000
AcDbSavedByObjectVersion
1070
     0
  0
VISUALSTYLE
  5
3C
102
{ACAD_XDICTIONARY
360
2DF
102
}
102
{ACAD_REACTORS
330
29
102
}
330
29
100
AcDbVisualStyle
  2
X-Ray
 70
    25
 71
     2
 72
     2
 73
     1
 90
        1
 40
0.5
 41
-30.0
 62
     5
 63
     7
421
 16777215
 74
     1
 91
        0
 64
     7
 65
   257
 75
     1
175
     1
 42
1.0
 92
        8
 66
     7
 43
1.0
 76
     1
 77
     6
 78
     2
 67
     7
 79
     3
170
     0
171
     0
290
     0
174
     0
 93
       13
 44
0.0
173
     0
291
     0
 45
0.0
1001
ACAD
1000
AcDbSavedByObjectVersion
1070
     0
  0
DICTIONARYVAR
  5
80
102
{ACAD_REACTORS
330
7B
102
}
330
7B
100
DictionaryVariables
280
     0
  1
1:1
  0
DICTIONARYVAR
  5
7D
102
{ACAD_REACTORS
330
7B
102
}
330
7B
100
DictionaryVariables
280
     0
  1
STANDARD
  0
DICTIONARYVAR
  5
7C
102
{ACAD_REACTORS
330
7B
102
}
330
7B
100
DictionaryVariables
280
     0
  1
STANDARD
  0
DICTIONARYVAR
  5
7E
102
{ACAD_REACTORS
330
7B
102
}
330
7B
100
DictionaryVariables
280
     0
  1
Imperial24
  0
DICTIONARYVAR
  5
7F
102
{ACAD_REACTORS
330
7B
102
}
330
7B
100
DictionaryVariables
280
     0
  1
Imperial24
  0
DICTIONARYVAR
  5
81
102
{ACAD_REACTORS
330
7B
102
}
330
7B
100
DictionaryVariables
280
     0
  1
2
  0
XRECORD
  5
2B0
102
{ACAD_REACTORS
330
2AC
102
}
330
2AC
100
AcDbXrecord
280
     1
  1
BUILDING_ID
  1
2208A9 RDEX SHELTERSEAL
  1
FLOOR_ID
  1
785717
  0
XRECORD
  5
2AE
102
{ACAD_REACTORS
330
2AC
102
}
330
2AC
100
AcDbXrecord
280
     1
  1
-2000051
  1
Lines
  1
-2000280
  1
Title Blocks
  1
-2000300
  1
Text Notes
  1
-2000510
  1
Viewports
  1
-2002000
  1
Detail Items
  1
-2005022
  1
Multi-Category Tags
  0
XRECORD
  5
2AF
102
{ACAD_REACTORS
330
2AC
102
}
330
2AC
100
AcDbXrecord
280
     1
  1
330670
  1
(ARDEX) Lines 02
  1
330674
  1
(ARDEX) Lines 05
  1
335606
  1
(ARDEX) Lines 01
  1
335608
  1
(ARDEX) Lines 02
  1
335610
  1
(ARDEX) Lines 03
  1
335612
  1
(ARDEX) Lines 05
  1
342010
  1
(ARDEX) Lines 03 Dashed
  1
614484
  1
(ARDEX) Lines 07
  0
XRECORD
  5
2AD
102
{ACAD_REACTORS
330
2AC
102
}
330
2AC
100
AcDbXrecord
280
     1
  1
343954
  1
Text : (ARDEX) 2mm Text
  1
372253
  1
(ARDEX) Tag Multi Category : Detail components
  1
372261
  1
(ARDEX) Tag Multi Category : Comments
  1
613215
  1
(ARDEX) Tag Multi Category Left Align : Detail components
  1
677308
  1
(ARDEX) Landscape Title block Weldtec Tanking : WPM 3000X
  1
706305
  1
(ARDEX) Lining - Various : Concrete Wall 200
  1
707735
  1
(ARDEX) Waterstop : (ARDEX) Water Stop
  1
708929
  1
(ARDEX) Lines : WPM240 Primer
  1
709010
  1
(ARDEX) Lines : DPC
  1
715094
  1
(ARDEX) Lining - Various : Protection Board
  1
715675
  1
Filled region : Solid - Compacted Base
  1
718934
  1
(ARDEX) Drain 100mm : (ARDEX) Drain 100mm
  1
729406
  1
Filled region : Solid - Site Concrete
  1
767633
  1
(ARDEX) Lines : WPM 3000X DPM Membrane
  1
771491
  1
(ARDEX) Concrete Base No Step without Chamfer : (ARDEX) Concrete Base No Step without Chamfer
  1
777083
  1
Filled region : Dish Drain
  1
777587
  1
Filled region : Drainage fill
  1
949
  1
Viewport : (AS) No Scale No Back Ref
  0
DICTIONARY
  5
2F0
330
6B
100
AcDbDictionary
280
     1
281
     1
  3
ACAD_XREC_ROUNDTRIP
360
2F1
  0
DICTIONARY
  5
1A
330
19
100
AcDbDictionary
280
     1
281
     1
  3
BUMPTILE
360
1C
  3
DIFFUSETILE
360
1B
  3
OPACITYTILE
360
1F
  3
REFLECTIONTILE
360
1E
  3
REFRACTIONTILE
360
20
  3
SPECULARTILE
360
1D
  0
DICTIONARY
  5
12
330
11
100
AcDbDictionary
280
     1
281
     1
  3
BUMPTILE
360
14
  3
DIFFUSETILE
360
13
  3
OPACITYTILE
360
17
  3
REFLECTIONTILE
360
16
  3
REFRACTIONTILE
360
18
  3
SPECULARTILE
360
15
  0
DICTIONARY
  5
22
330
21
100
AcDbDictionary
280
     1
281
     1
  3
BUMPTILE
360
24
  3
DIFFUSETILE
360
23
  3
OPACITYTILE
360
27
  3
REFLECTIONTILE
360
26
  3
REFRACTIONTILE
360
28
  3
SPECULARTILE
360
25
  0
DICTIONARY
  5
2EC
330
67
100
AcDbDictionary
280
     1
281
     1
  3
ACAD_XREC_ROUNDTRIP
360
2ED
  0
DICTIONARY
  5
2EE
330
69
100
AcDbDictionary
280
     1
281
     1
  3
ACAD_XREC_ROUNDTRIP
360
2EF
  0
DICTIONARY
  5
2B5
330
65
100
AcDbDictionary
280
     1
281
     1
  3
ACAD_ROUNDTRIP_2008_TABLESTYLE_CELLSTYLEMAP
360
2B6
  0
DICTIONARY
  5
2C5
330
2F
100
AcDbDictionary
280
     1
281
     1
  3
ACAD_XREC_ROUNDTRIP
360
2C6
  0
DICTIONARY
  5
2C3
330
2E
100
AcDbDictionary
280
     1
281
     1
  3
ACAD_XREC_ROUNDTRIP
360
2C4
  0
DICTIONARY
  5
2D1
330
35
100
AcDbDictionary
280
     1
281
     1
  3
ACAD_XREC_ROUNDTRIP
360
2D2
  0
DICTIONARY
  5
2D9
330
39
100
AcDbDictionary
280
     1
281
     1
  3
ACAD_XREC_ROUNDTRIP
360
2DA
  0
DICTIONARY
  5
2CB
330
32
100
AcDbDictionary
280
     1
281
     1
  3
ACAD_XREC_ROUNDTRIP
360
2CC
  0
DICTIONARY
  5
2CF
330
34
100
AcDbDictionary
280
     1
281
     1
  3
ACAD_XREC_ROUNDTRIP
360
2D0
  0
DICTIONARY
  5
2E9
330
41
100
AcDbDictionary
280
     1
281
     1
  3
ACAD_XREC_ROUNDTRIP
360
2EA
  0
DICTIONARY
  5
2D7
330
38
100
AcDbDictionary
280
     1
281
     1
  3
ACAD_XREC_ROUNDTRIP
360
2D8
  0
DICTIONARY
  5
2BB
330
2A
100
AcDbDictionary
280
     1
281
     1
  3
ACAD_XREC_ROUNDTRIP
360
2BC
  0
DICTIONARY
  5
2BD
330
2B
100
AcDbDictionary
280
     1
281
     1
  3
ACAD_XREC_ROUNDTRIP
360
2BE
  0
DICTIONARY
  5
2BF
330
2C
100
AcDbDictionary
280
     1
281
     1
  3
ACAD_XREC_ROUNDTRIP
360
2C0
  0
DICTIONARY
  5
2C1
330
2D
100
AcDbDictionary
280
     1
281
     1
  3
ACAD_XREC_ROUNDTRIP
360
2C2
  0
DICTIONARY
  5
2C9
330
31
100
AcDbDictionary
280
     1
281
     1
  3
ACAD_XREC_ROUNDTRIP
360
2CA
  0
DICTIONARY
  5
2E5
330
3F
100
AcDbDictionary
280
     1
281
     1
  3
ACAD_XREC_ROUNDTRIP
360
2E6
  0
DICTIONARY
  5
2D5
330
37
100
AcDbDictionary
280
     1
281
     1
  3
ACAD_XREC_ROUNDTRIP
360
2D6
  0
DICTIONARY
  5
2E7
330
40
100
AcDbDictionary
280
     1
281
     1
  3
ACAD_XREC_ROUNDTRIP
360
2E8
  0
DICTIONARY
  5
2CD
330
33
100
AcDbDictionary
280
     1
281
     1
  3
ACAD_XREC_ROUNDTRIP
360
2CE
  0
DICTIONARY
  5
2E3
330
3E
100
AcDbDictionary
280
     1
281
     1
  3
ACAD_XREC_ROUNDTRIP
360
2E4
  0
DICTIONARY
  5
2E1
330
3D
100
AcDbDictionary
280
     1
281
     1
  3
ACAD_XREC_ROUNDTRIP
360
2E2
  0
DICTIONARY
  5
2DB
330
3A
100
AcDbDictionary
280
     1
281
     1
  3
ACAD_XREC_ROUNDTRIP
360
2DC
  0
DICTIONARY
  5
2DD
330
3B
100
AcDbDictionary
280
     1
281
     1
  3
ACAD_XREC_ROUNDTRIP
360
2DE
  0
DICTIONARY
  5
2D3
330
36
100
AcDbDictionary
280
     1
281
     1
  3
ACAD_XREC_ROUNDTRIP
360
2D4
  0
DICTIONARY
  5
2C7
330
30
100
AcDbDictionary
280
     1
281
     1
  3
ACAD_XREC_ROUNDTRIP
360
2C8
  0
DICTIONARY
  5
2DF
330
3C
100
AcDbDictionary
280
     1
281
     1
  3
ACAD_XREC_ROUNDTRIP
360
2E0
  0
XRECORD
  5
2F1
102
{ACAD_REACTORS
330
2F0
102
}
330
2F0
100
AcDbXrecord
280
     1
102
DISPLAYNAME
  1
Imperial24
102
FLAGS
 90
        0
  0
XRECORD
  5
1C
102
{ACAD_REACTORS
330
1A
102
}
330
1A
100
AcDbXrecord
280
     1
270
     1
271
     1
  0
XRECORD
  5
1B
102
{ACAD_REACTORS
330
1A
102
}
330
1A
100
AcDbXrecord
280
     1
270
     1
271
     1
  0
XRECORD
  5
1F
102
{ACAD_REACTORS
330
1A
102
}
330
1A
100
AcDbXrecord
280
     1
270
     1
271
     1
  0
XRECORD
  5
1E
102
{ACAD_REACTORS
330
1A
102
}
330
1A
100
AcDbXrecord
280
     1
270
     1
271
     1
  0
XRECORD
  5
20
102
{ACAD_REACTORS
330
1A
102
}
330
1A
100
AcDbXrecord
280
     1
270
     1
271
     1
  0
XRECORD
  5
1D
102
{ACAD_REACTORS
330
1A
102
}
330
1A
100
AcDbXrecord
280
     1
270
     1
271
     1
  0
XRECORD
  5
14
102
{ACAD_REACTORS
330
12
102
}
330
12
100
AcDbXrecord
280
     1
270
     1
271
     1
  0
XRECORD
  5
13
102
{ACAD_REACTORS
330
12
102
}
330
12
100
AcDbXrecord
280
     1
270
     1
271
     1
  0
XRECORD
  5
17
102
{ACAD_REACTORS
330
12
102
}
330
12
100
AcDbXrecord
280
     1
270
     1
271
     1
  0
XRECORD
  5
16
102
{ACAD_REACTORS
330
12
102
}
330
12
100
AcDbXrecord
280
     1
270
     1
271
     1
  0
XRECORD
  5
18
102
{ACAD_REACTORS
330
12
102
}
330
12
100
AcDbXrecord
280
     1
270
     1
271
     1
  0
XRECORD
  5
15
102
{ACAD_REACTORS
330
12
102
}
330
12
100
AcDbXrecord
280
     1
270
     1
271
     1
  0
XRECORD
  5
24
102
{ACAD_REACTORS
330
22
102
}
330
22
100
AcDbXrecord
280
     1
270
     1
271
     1
  0
XRECORD
  5
23
102
{ACAD_REACTORS
330
22
102
}
330
22
100
AcDbXrecord
280
     1
270
     1
271
     1
  0
XRECORD
  5
27
102
{ACAD_REACTORS
330
22
102
}
330
22
100
AcDbXrecord
280
     1
270
     1
271
     1
  0
XRECORD
  5
26
102
{ACAD_REACTORS
330
22
102
}
330
22
100
AcDbXrecord
280
     1
270
     1
271
     1
  0
XRECORD
  5
28
102
{ACAD_REACTORS
330
22
102
}
330
22
100
AcDbXrecord
280
     1
270
     1
271
     1
  0
XRECORD
  5
25
102
{ACAD_REACTORS
330
22
102
}
330
22
100
AcDbXrecord
280
     1
270
     1
271
     1
  0
XRECORD
  5
2ED
102
{ACAD_REACTORS
330
2EC
102
}
330
2EC
100
AcDbXrecord
280
     1
102
ACAD_ROUNDTRIP_2012_MLEADER_STYLE
298
     1
  0
XRECORD
  5
2EF
102
{ACAD_REACTORS
330
2EE
102
}
330
2EE
100
AcDbXrecord
280
     1
102
DISPLAYNAME
  1
Imperial24
102
FLAGS
 90
        0
  0
CELLSTYLEMAP
  5
2B6
102
{ACAD_REACTORS
330
2B5
102
}
330
2B5
100
AcDbCellStyleMap
 90
        3
300
CELLSTYLE
  1
TABLEFORMAT_BEGIN
 90
        5
170
     1
 91
        0
 92
    32768
 62
   257
 93
        1
300
CONTENTFORMAT
  1
CONTENTFORMAT_BEGIN
 90
        0
 91
        0
 92
      512
 93
        0
300

 40
0.0
140
1.0
 94
        5
 62
     0
340
55
144
0.25
309
CONTENTFORMAT_END
171
     0
 94
        0
309
TABLEFORMAT_END
  1
CELLSTYLE_BEGIN
 90
        1
 91
        1
300
_TITLE
309
CELLSTYLE_END
300
CELLSTYLE
  1
TABLEFORMAT_BEGIN
 90
        5
170
     1
 91
        0
 92
        0
 62
   257
 93
        1
300
CONTENTFORMAT
  1
CONTENTFORMAT_BEGIN
 90
        0
 91
        0
 92
      512
 93
        0
300

 40
0.0
140
1.0
 94
        5
 62
     0
340
55
144
0.18
309
CONTENTFORMAT_END
171
     0
 94
        0
309
TABLEFORMAT_END
  1
CELLSTYLE_BEGIN
 90
        2
 91
        1
300
_HEADER
309
CELLSTYLE_END
300
CELLSTYLE
  1
TABLEFORMAT_BEGIN
 90
        5
170
     1
 91
        0
 92
        0
 62
   257
 93
        1
300
CONTENTFORMAT
  1
CONTENTFORMAT_BEGIN
 90
        0
 91
        0
 92
      512
 93
        0
300

 40
0.0
140
1.0
 94
        2
 62
     0
340
55
144
0.18
309
CONTENTFORMAT_END
171
     0
 94
        0
309
TABLEFORMAT_END
  1
CELLSTYLE_BEGIN
 90
        3
 91
        2
300
_DATA
309
CELLSTYLE_END
  0
XRECORD
  5
2C6
102
{ACAD_REACTORS
330
2C5
102
}
330
2C5
100
AcDbXrecord
280
     1
102
RTVSPost2010Prop28
280
     1
102
RTVSPost2010PropOp28
 70
     1
102
RTVSPost2010Prop29
280
     1
102
RTVSPost2010PropOp29
 70
     1
102
RTVSPost2010Prop30
280
     0
102
RTVSPost2010PropOp30
 70
     1
102
RTVSPost2010Prop31
280
     0
102
RTVSPost2010PropOp31
 70
     1
102
RTVSPost2010Prop32
280
     0
102
RTVSPost2010PropOp32
 70
     1
102
RTVSPost2010Prop33
280
     0
102
RTVSPost2010PropOp33
 70
     1
102
RTVSPost2010Prop34
280
     0
102
RTVSPost2010PropOp34
 70
     1
102
RTVSPost2010Prop35
280
     0
102
RTVSPost2010PropOp35
 70
     1
102
RTVSPost2010Prop36
280
     0
102
RTVSPost2010PropOp36
 70
     1
102
RTVSPost2010Prop37
 90
       50
102
RTVSPost2010PropOp37
 70
     1
102
RTVSPost2010Prop38
140
0.0
102
RTVSPost2010PropOp38
 70
     1
102
RTVSPost2010Prop39
140
1.0
102
RTVSPost2010PropOp39
 70
     1
102
RTVSPost2010Prop40
 90
        0
102
RTVSPost2010PropOp40
 70
     1
102
RTVSPost2010Prop41ColorIndex
 90
       18
102
RTVSPost2010Prop41ColorRGB
 90
        0
102
RTVSPost2010PropOp41
 70
     1
102
RTVSPost2010Prop42
 90
       50
102
RTVSPost2010PropOp42
 70
     1
102
RTVSPost2010Prop43
 90
        3
102
RTVSPost2010PropOp43
 70
     1
102
RTVSPost2010Prop44ColorIndex
 90
        5
102
RTVSPost2010Prop44ColorRGB
 90
      255
102
RTVSPost2010PropOp44
 70
     1
102
RTVSPost2010Prop45
280
     0
102
RTVSPost2010PropOp45
 70
     1
102
RTVSPost2010Prop46
 90
       50
102
RTVSPost2010PropOp46
 70
     1
102
RTVSPost2010Prop47
 90
       50
102
RTVSPost2010PropOp47
 70
     1
102
RTVSPost2010Prop48
 90
       50
102
RTVSPost2010PropOp48
 70
     1
102
RTVSPost2010Prop49
280
     0
102
RTVSPost2010PropOp49
 70
     1
102
RTVSPost2010Prop50
 90
       50
102
RTVSPost2010PropOp50
 70
     1
102
RTVSPost2010Prop51ColorIndex
 90
      256
102
RTVSPost2010Prop51ColorRGB
 90
-16777216
102
RTVSPost2010PropOp51
 70
     0
102
RTVSPost2010Prop52
140
1.0
102
RTVSPost2010PropOp52
 70
     0
102
RTVSPost2010Prop53
 90
        2
102
RTVSPost2010PropOp53
 70
     1
102
RTVSPost2010Prop54
  1
strokes_ogs.tif
102
RTVSPost2010PropOp54
 70
     1
102
RTVSPost2010Prop55
280
     0
102
RTVSPost2010PropOp55
 70
     1
102
RTVSPost2010Prop56
140
1.0
102
RTVSPost2010PropOp56
 70
     1
102
RTVSPost2010Prop57
140
1.0
102
RTVSPost2010PropOp57
 70
     1
102
RTVSPropertyOp0
 70
     1
102
RTVSPropertyOp1
 70
     1
102
RTVSPropertyOp2
 70
     1
102
RTVSPropertyOp3
 70
     1
102
RTVSPropertyOp4
 70
     1
102
RTVSPropertyOp5
 70
     1
102
RTVSPropertyOp6
 70
     1
102
RTVSPropertyOp7
 70
     1
102
RTVSPropertyOp8
 70
     1
102
RTVSPropertyOp9
 70
     1
102
RTVSPropertyOp10
 70
     1
102
RTVSPropertyOp11
 70
     1
102
RTVSPropertyOp12
 70
     1
102
RTVSPropertyOp13
 70
     1
102
RTVSPropertyOp14
 70
     1
102
RTVSPropertyOp15
 70
     1
102
RTVSPropertyOp16
 70
     1
102
RTVSPropertyOp17
 70
     1
102
RTVSPropertyOp18
 70
     1
102
RTVSPropertyOp19
 70
     1
102
RTVSPropertyOp20
 70
     1
102
RTVSPropertyOp21
 70
     1
102
RTVSPropertyOp22
 70
     1
102
RTVSPropertyOp23
 70
     1
102
RTVSPropertyOp24
 70
     1
102
RTVSPropertyOp25
 70
     1
102
RTVSPropertyOp26
 70
     1
102
RTVSPropertyOp27
 70
     1
102
RTVSPropertyOp28
 70
     1
102
RTVSPropertyOp29
 70
     1
102
RTVSPropertyOp30
 70
     1
102
RTVSPropertyOp31
 70
     1
102
RTVSPropertyOp32
 70
     1
102
RTVSPropertyOp33
 70
     1
102
RTVSPropertyOp34
 70
     1
102
RTVSPropertyOp35
 70
     1
102
RTVSPropertyOp36
 70
     1
102
RTVSPropertyOp37
 70
     1
102
RTVSPropertyOp38
 70
     1
102
RTVSPropertyOp39
 70
     1
102
RTVSPropertyOp40
 70
     1
102
RTVSPropertyOp41
 70
     1
102
RTVSPropertyOp42
 70
     1
102
RTVSPropertyOp43
 70
     1
102
RTVSPropertyOp44
 70
     1
102
RTVSPropertyOp45
 70
     1
102
RTVSPropertyOp46
 70
     1
102
RTVSPropertyOp47
 70
     1
102
RTVSPropertyOp48
 70
     1
102
RTVSPropertyOp49
 70
     1
102
RTVSPropertyOp50
 70
     1
102
RTVSPropertyOp51
 70
     0
102
RTVSPropertyOp52
 70
     0
102
RTVSPropertyOp53
 70
     1
102
RTVSPropertyOp54
 70
     1
102
RTVSPropertyOp55
 70
     1
102
RTVSPropertyOp56
 70
     1
102
RTVSPropertyOp57
 70
     1
102
RTVSPropertyOp58
 70
     1
102
RTVSPropertyOp59
 70
     1
102
RTVSPropertyOp60
 70
     1
102
RTVSPropertyOp61
 70
     1
102
RTVSPropertyOp62
 70
     1
  0
XRECORD
  5
2C4
102
{ACAD_REACTORS
330
2C3
102
}
330
2C3
100
AcDbXrecord
280
     1
102
RTVSPost2010Prop28
280
     0
102
RTVSPost2010PropOp28
 70
     1
102
RTVSPost2010Prop29
280
     1
102
RTVSPost2010PropOp29
 70
     1
102
RTVSPost2010Prop30
280
     1
102
RTVSPost2010PropOp30
 70
     1
102
RTVSPost2010Prop31
280
     0
102
RTVSPost2010PropOp31
 70
     1
102
RTVSPost2010Prop32
280
     0
102
RTVSPost2010PropOp32
 70
     1
102
RTVSPost2010Prop33
280
     0
102
RTVSPost2010PropOp33
 70
     1
102
RTVSPost2010Prop34
280
     0
102
RTVSPost2010PropOp34
 70
     1
102
RTVSPost2010Prop35
280
     0
102
RTVSPost2010PropOp35
 70
     1
102
RTVSPost2010Prop36
280
     0
102
RTVSPost2010PropOp36
 70
     1
102
RTVSPost2010Prop37
 90
       50
102
RTVSPost2010PropOp37
 70
     1
102
RTVSPost2010Prop38
140
0.0
102
RTVSPost2010PropOp38
 70
     1
102
RTVSPost2010Prop39
140
1.0
102
RTVSPost2010PropOp39
 70
     1
102
RTVSPost2010Prop40
 90
        0
102
RTVSPost2010PropOp40
 70
     1
102
RTVSPost2010Prop41ColorIndex
 90
       18
102
RTVSPost2010Prop41ColorRGB
 90
        0
102
RTVSPost2010PropOp41
 70
     1
102
RTVSPost2010Prop42
 90
       50
102
RTVSPost2010PropOp42
 70
     1
102
RTVSPost2010Prop43
 90
        3
102
RTVSPost2010PropOp43
 70
     1
102
RTVSPost2010Prop44ColorIndex
 90
        5
102
RTVSPost2010Prop44ColorRGB
 90
      255
102
RTVSPost2010PropOp44
 70
     1
102
RTVSPost2010Prop45
280
     0
102
RTVSPost2010PropOp45
 70
     1
102
RTVSPost2010Prop46
 90
       50
102
RTVSPost2010PropOp46
 70
     1
102
RTVSPost2010Prop47
 90
       50
102
RTVSPost2010PropOp47
 70
     1
102
RTVSPost2010Prop48
 90
       50
102
RTVSPost2010PropOp48
 70
     1
102
RTVSPost2010Prop49
280
     0
102
RTVSPost2010PropOp49
 70
     1
102
RTVSPost2010Prop50
 90
       50
102
RTVSPost2010PropOp50
 70
     1
102
RTVSPost2010Prop51ColorIndex
 90
      256
102
RTVSPost2010Prop51ColorRGB
 90
-16777216
102
RTVSPost2010PropOp51
 70
     0
102
RTVSPost2010Prop52
140
1.0
102
RTVSPost2010PropOp52
 70
     0
102
RTVSPost2010Prop53
 90
        2
102
RTVSPost2010PropOp53
 70
     1
102
RTVSPost2010Prop54
  1
strokes_ogs.tif
102
RTVSPost2010PropOp54
 70
     1
102
RTVSPost2010Prop55
280
     0
102
RTVSPost2010PropOp55
 70
     1
102
RTVSPost2010Prop56
140
1.0
102
RTVSPost2010PropOp56
 70
     1
102
RTVSPost2010Prop57
140
1.0
102
RTVSPost2010PropOp57
 70
     1
102
RTVSPropertyOp0
 70
     1
102
RTVSPropertyOp1
 70
     1
102
RTVSPropertyOp2
 70
     1
102
RTVSPropertyOp3
 70
     1
102
RTVSPropertyOp4
 70
     1
102
RTVSPropertyOp5
 70
     1
102
RTVSPropertyOp6
 70
     1
102
RTVSPropertyOp7
 70
     1
102
RTVSPropertyOp8
 70
     1
102
RTVSPropertyOp9
 70
     1
102
RTVSPropertyOp10
 70
     1
102
RTVSPropertyOp11
 70
     1
102
RTVSPropertyOp12
 70
     1
102
RTVSPropertyOp13
 70
     1
102
RTVSPropertyOp14
 70
     1
102
RTVSPropertyOp15
 70
     1
102
RTVSPropertyOp16
 70
     1
102
RTVSPropertyOp17
 70
     1
102
RTVSPropertyOp18
 70
     1
102
RTVSPropertyOp19
 70
     1
102
RTVSPropertyOp20
 70
     1
102
RTVSPropertyOp21
 70
     1
102
RTVSPropertyOp22
 70
     1
102
RTVSPropertyOp23
 70
     1
102
RTVSPropertyOp24
 70
     1
102
RTVSPropertyOp25
 70
     1
102
RTVSPropertyOp26
 70
     1
102
RTVSPropertyOp27
 70
     1
102
RTVSPropertyOp28
 70
     1
102
RTVSPropertyOp29
 70
     1
102
RTVSPropertyOp30
 70
     1
102
RTVSPropertyOp31
 70
     1
102
RTVSPropertyOp32
 70
     1
102
RTVSPropertyOp33
 70
     1
102
RTVSPropertyOp34
 70
     1
102
RTVSPropertyOp35
 70
     1
102
RTVSPropertyOp36
 70
     1
102
RTVSPropertyOp37
 70
     1
102
RTVSPropertyOp38
 70
     1
102
RTVSPropertyOp39
 70
     1
102
RTVSPropertyOp40
 70
     1
102
RTVSPropertyOp41
 70
     1
102
RTVSPropertyOp42
 70
     1
102
RTVSPropertyOp43
 70
     1
102
RTVSPropertyOp44
 70
     1
102
RTVSPropertyOp45
 70
     1
102
RTVSPropertyOp46
 70
     1
102
RTVSPropertyOp47
 70
     1
102
RTVSPropertyOp48
 70
     1
102
RTVSPropertyOp49
 70
     1
102
RTVSPropertyOp50
 70
     1
102
RTVSPropertyOp51
 70
     0
102
RTVSPropertyOp52
 70
     0
102
RTVSPropertyOp53
 70
     1
102
RTVSPropertyOp54
 70
     1
102
RTVSPropertyOp55
 70
     1
102
RTVSPropertyOp56
 70
     1
102
RTVSPropertyOp57
 70
     1
102
RTVSPropertyOp58
 70
     1
102
RTVSPropertyOp59
 70
     1
102
RTVSPropertyOp60
 70
     1
102
RTVSPropertyOp61
 70
     1
102
RTVSPropertyOp62
 70
     1
  0
XRECORD
  5
2D2
102
{ACAD_REACTORS
330
2D1
102
}
330
2D1
100
AcDbXrecord
280
     1
102
RTVSPost2010Prop28
280
     0
102
RTVSPost2010PropOp28
 70
     1
102
RTVSPost2010Prop29
280
     1
102
RTVSPost2010PropOp29
 70
     1
102
RTVSPost2010Prop30
280
     1
102
RTVSPost2010PropOp30
 70
     1
102
RTVSPost2010Prop31
280
     0
102
RTVSPost2010PropOp31
 70
     1
102
RTVSPost2010Prop32
280
     0
102
RTVSPost2010PropOp32
 70
     1
102
RTVSPost2010Prop33
280
     0
102
RTVSPost2010PropOp33
 70
     1
102
RTVSPost2010Prop34
280
     0
102
RTVSPost2010PropOp34
 70
     1
102
RTVSPost2010Prop35
280
     0
102
RTVSPost2010PropOp35
 70
     1
102
RTVSPost2010Prop36
280
     0
102
RTVSPost2010PropOp36
 70
     1
102
RTVSPost2010Prop37
 90
       50
102
RTVSPost2010PropOp37
 70
     1
102
RTVSPost2010Prop38
140
0.0
102
RTVSPost2010PropOp38
 70
     1
102
RTVSPost2010Prop39
140
1.0
102
RTVSPost2010PropOp39
 70
     1
102
RTVSPost2010Prop40
 90
        0
102
RTVSPost2010PropOp40
 70
     1
102
RTVSPost2010Prop41ColorIndex
 90
       18
102
RTVSPost2010Prop41ColorRGB
 90
        0
102
RTVSPost2010PropOp41
 70
     1
102
RTVSPost2010Prop42
 90
       50
102
RTVSPost2010PropOp42
 70
     1
102
RTVSPost2010Prop43
 90
        3
102
RTVSPost2010PropOp43
 70
     1
102
RTVSPost2010Prop44ColorIndex
 90
        5
102
RTVSPost2010Prop44ColorRGB
 90
      255
102
RTVSPost2010PropOp44
 70
     1
102
RTVSPost2010Prop45
280
     0
102
RTVSPost2010PropOp45
 70
     1
102
RTVSPost2010Prop46
 90
       50
102
RTVSPost2010PropOp46
 70
     1
102
RTVSPost2010Prop47
 90
       50
102
RTVSPost2010PropOp47
 70
     1
102
RTVSPost2010Prop48
 90
       50
102
RTVSPost2010PropOp48
 70
     1
102
RTVSPost2010Prop49
280
     0
102
RTVSPost2010PropOp49
 70
     1
102
RTVSPost2010Prop50
 90
       50
102
RTVSPost2010PropOp50
 70
     1
102
RTVSPost2010Prop51ColorIndex
 90
      256
102
RTVSPost2010Prop51ColorRGB
 90
-16777216
102
RTVSPost2010PropOp51
 70
     0
102
RTVSPost2010Prop52
140
1.0
102
RTVSPost2010PropOp52
 70
     0
102
RTVSPost2010Prop53
 90
        2
102
RTVSPost2010PropOp53
 70
     1
102
RTVSPost2010Prop54
  1
strokes_ogs.tif
102
RTVSPost2010PropOp54
 70
     1
102
RTVSPost2010Prop55
280
     0
102
RTVSPost2010PropOp55
 70
     1
102
RTVSPost2010Prop56
140
1.0
102
RTVSPost2010PropOp56
 70
     1
102
RTVSPost2010Prop57
140
1.0
102
RTVSPost2010PropOp57
 70
     1
102
RTVSPropertyOp0
 70
     1
102
RTVSPropertyOp1
 70
     1
102
RTVSPropertyOp2
 70
     1
102
RTVSPropertyOp3
 70
     1
102
RTVSPropertyOp4
 70
     1
102
RTVSPropertyOp5
 70
     1
102
RTVSPropertyOp6
 70
     1
102
RTVSPropertyOp7
 70
     1
102
RTVSPropertyOp8
 70
     1
102
RTVSPropertyOp9
 70
     1
102
RTVSPropertyOp10
 70
     1
102
RTVSPropertyOp11
 70
     1
102
RTVSPropertyOp12
 70
     1
102
RTVSPropertyOp13
 70
     1
102
RTVSPropertyOp14
 70
     1
102
RTVSPropertyOp15
 70
     1
102
RTVSPropertyOp16
 70
     1
102
RTVSPropertyOp17
 70
     1
102
RTVSPropertyOp18
 70
     1
102
RTVSPropertyOp19
 70
     1
102
RTVSPropertyOp20
 70
     1
102
RTVSPropertyOp21
 70
     1
102
RTVSPropertyOp22
 70
     1
102
RTVSPropertyOp23
 70
     1
102
RTVSPropertyOp24
 70
     1
102
RTVSPropertyOp25
 70
     1
102
RTVSPropertyOp26
 70
     1
102
RTVSPropertyOp27
 70
     1
102
RTVSPropertyOp28
 70
     1
102
RTVSPropertyOp29
 70
     1
102
RTVSPropertyOp30
 70
     1
102
RTVSPropertyOp31
 70
     1
102
RTVSPropertyOp32
 70
     1
102
RTVSPropertyOp33
 70
     1
102
RTVSPropertyOp34
 70
     1
102
RTVSPropertyOp35
 70
     1
102
RTVSPropertyOp36
 70
     1
102
RTVSPropertyOp37
 70
     1
102
RTVSPropertyOp38
 70
     1
102
RTVSPropertyOp39
 70
     1
102
RTVSPropertyOp40
 70
     1
102
RTVSPropertyOp41
 70
     1
102
RTVSPropertyOp42
 70
     1
102
RTVSPropertyOp43
 70
     1
102
RTVSPropertyOp44
 70
     1
102
RTVSPropertyOp45
 70
     1
102
RTVSPropertyOp46
 70
     1
102
RTVSPropertyOp47
 70
     1
102
RTVSPropertyOp48
 70
     1
102
RTVSPropertyOp49
 70
     1
102
RTVSPropertyOp50
 70
     1
102
RTVSPropertyOp51
 70
     0
102
RTVSPropertyOp52
 70
     0
102
RTVSPropertyOp53
 70
     1
102
RTVSPropertyOp54
 70
     1
102
RTVSPropertyOp55
 70
     1
102
RTVSPropertyOp56
 70
     1
102
RTVSPropertyOp57
 70
     1
102
RTVSPropertyOp58
 70
     1
102
RTVSPropertyOp59
 70
     1
102
RTVSPropertyOp60
 70
     1
102
RTVSPropertyOp61
 70
     1
102
RTVSPropertyOp62
 70
     1
  0
XRECORD
  5
2DA
102
{ACAD_REACTORS
330
2D9
102
}
330
2D9
100
AcDbXrecord
280
     1
102
RTVSPost2010Prop28
280
     0
102
RTVSPost2010PropOp28
 70
     1
102
RTVSPost2010Prop29
280
     1
102
RTVSPost2010PropOp29
 70
     1
102
RTVSPost2010Prop30
280
     1
102
RTVSPost2010PropOp30
 70
     1
102
RTVSPost2010Prop31
280
     0
102
RTVSPost2010PropOp31
 70
     1
102
RTVSPost2010Prop32
280
     0
102
RTVSPost2010PropOp32
 70
     1
102
RTVSPost2010Prop33
280
     0
102
RTVSPost2010PropOp33
 70
     1
102
RTVSPost2010Prop34
280
     0
102
RTVSPost2010PropOp34
 70
     1
102
RTVSPost2010Prop35
280
     0
102
RTVSPost2010PropOp35
 70
     1
102
RTVSPost2010Prop36
280
     0
102
RTVSPost2010PropOp36
 70
     1
102
RTVSPost2010Prop37
 90
       50
102
RTVSPost2010PropOp37
 70
     1
102
RTVSPost2010Prop38
140
0.0
102
RTVSPost2010PropOp38
 70
     1
102
RTVSPost2010Prop39
140
1.0
102
RTVSPost2010PropOp39
 70
     1
102
RTVSPost2010Prop40
 90
        0
102
RTVSPost2010PropOp40
 70
     1
102
RTVSPost2010Prop41ColorIndex
 90
       18
102
RTVSPost2010Prop41ColorRGB
 90
        0
102
RTVSPost2010PropOp41
 70
     1
102
RTVSPost2010Prop42
 90
       50
102
RTVSPost2010PropOp42
 70
     1
102
RTVSPost2010Prop43
 90
        3
102
RTVSPost2010PropOp43
 70
     1
102
RTVSPost2010Prop44ColorIndex
 90
        5
102
RTVSPost2010Prop44ColorRGB
 90
      255
102
RTVSPost2010PropOp44
 70
     1
102
RTVSPost2010Prop45
280
     0
102
RTVSPost2010PropOp45
 70
     1
102
RTVSPost2010Prop46
 90
       50
102
RTVSPost2010PropOp46
 70
     1
102
RTVSPost2010Prop47
 90
       50
102
RTVSPost2010PropOp47
 70
     1
102
RTVSPost2010Prop48
 90
       50
102
RTVSPost2010PropOp48
 70
     1
102
RTVSPost2010Prop49
280
     0
102
RTVSPost2010PropOp49
 70
     1
102
RTVSPost2010Prop50
 90
       50
102
RTVSPost2010PropOp50
 70
     1
102
RTVSPost2010Prop51ColorIndex
 90
      256
102
RTVSPost2010Prop51ColorRGB
 90
-16777216
102
RTVSPost2010PropOp51
 70
     0
102
RTVSPost2010Prop52
140
1.0
102
RTVSPost2010PropOp52
 70
     0
102
RTVSPost2010Prop53
 90
        2
102
RTVSPost2010PropOp53
 70
     1
102
RTVSPost2010Prop54
  1
strokes_ogs.tif
102
RTVSPost2010PropOp54
 70
     1
102
RTVSPost2010Prop55
280
     0
102
RTVSPost2010PropOp55
 70
     1
102
RTVSPost2010Prop56
140
1.0
102
RTVSPost2010PropOp56
 70
     1
102
RTVSPost2010Prop57
140
1.0
102
RTVSPost2010PropOp57
 70
     1
102
RTVSPropertyOp0
 70
     1
102
RTVSPropertyOp1
 70
     1
102
RTVSPropertyOp2
 70
     1
102
RTVSPropertyOp3
 70
     1
102
RTVSPropertyOp4
 70
     1
102
RTVSPropertyOp5
 70
     1
102
RTVSPropertyOp6
 70
     1
102
RTVSPropertyOp7
 70
     1
102
RTVSPropertyOp8
 70
     1
102
RTVSPropertyOp9
 70
     1
102
RTVSPropertyOp10
 70
     1
102
RTVSPropertyOp11
 70
     1
102
RTVSPropertyOp12
 70
     1
102
RTVSPropertyOp13
 70
     1
102
RTVSPropertyOp14
 70
     1
102
RTVSPropertyOp15
 70
     1
102
RTVSPropertyOp16
 70
     1
102
RTVSPropertyOp17
 70
     1
102
RTVSPropertyOp18
 70
     1
102
RTVSPropertyOp19
 70
     1
102
RTVSPropertyOp20
 70
     1
102
RTVSPropertyOp21
 70
     1
102
RTVSPropertyOp22
 70
     1
102
RTVSPropertyOp23
 70
     1
102
RTVSPropertyOp24
 70
     1
102
RTVSPropertyOp25
 70
     1
102
RTVSPropertyOp26
 70
     1
102
RTVSPropertyOp27
 70
     1
102
RTVSPropertyOp28
 70
     1
102
RTVSPropertyOp29
 70
     1
102
RTVSPropertyOp30
 70
     1
102
RTVSPropertyOp31
 70
     1
102
RTVSPropertyOp32
 70
     1
102
RTVSPropertyOp33
 70
     1
102
RTVSPropertyOp34
 70
     1
102
RTVSPropertyOp35
 70
     1
102
RTVSPropertyOp36
 70
     1
102
RTVSPropertyOp37
 70
     1
102
RTVSPropertyOp38
 70
     1
102
RTVSPropertyOp39
 70
     1
102
RTVSPropertyOp40
 70
     1
102
RTVSPropertyOp41
 70
     1
102
RTVSPropertyOp42
 70
     1
102
RTVSPropertyOp43
 70
     1
102
RTVSPropertyOp44
 70
     1
102
RTVSPropertyOp45
 70
     1
102
RTVSPropertyOp46
 70
     1
102
RTVSPropertyOp47
 70
     1
102
RTVSPropertyOp48
 70
     1
102
RTVSPropertyOp49
 70
     1
102
RTVSPropertyOp50
 70
     1
102
RTVSPropertyOp51
 70
     0
102
RTVSPropertyOp52
 70
     0
102
RTVSPropertyOp53
 70
     1
102
RTVSPropertyOp54
 70
     1
102
RTVSPropertyOp55
 70
     1
102
RTVSPropertyOp56
 70
     1
102
RTVSPropertyOp57
 70
     1
102
RTVSPropertyOp58
 70
     1
102
RTVSPropertyOp59
 70
     1
102
RTVSPropertyOp60
 70
     1
102
RTVSPropertyOp61
 70
     1
102
RTVSPropertyOp62
 70
     1
  0
XRECORD
  5
2CC
102
{ACAD_REACTORS
330
2CB
102
}
330
2CB
100
AcDbXrecord
280
     1
102
RTVSPost2010Prop28
280
     0
102
RTVSPost2010PropOp28
 70
     1
102
RTVSPost2010Prop29
280
     1
102
RTVSPost2010PropOp29
 70
     1
102
RTVSPost2010Prop30
280
     1
102
RTVSPost2010PropOp30
 70
     1
102
RTVSPost2010Prop31
280
     0
102
RTVSPost2010PropOp31
 70
     1
102
RTVSPost2010Prop32
280
     0
102
RTVSPost2010PropOp32
 70
     1
102
RTVSPost2010Prop33
280
     0
102
RTVSPost2010PropOp33
 70
     1
102
RTVSPost2010Prop34
280
     0
102
RTVSPost2010PropOp34
 70
     1
102
RTVSPost2010Prop35
280
     0
102
RTVSPost2010PropOp35
 70
     1
102
RTVSPost2010Prop36
280
     0
102
RTVSPost2010PropOp36
 70
     1
102
RTVSPost2010Prop37
 90
       50
102
RTVSPost2010PropOp37
 70
     1
102
RTVSPost2010Prop38
140
0.0
102
RTVSPost2010PropOp38
 70
     1
102
RTVSPost2010Prop39
140
1.0
102
RTVSPost2010PropOp39
 70
     1
102
RTVSPost2010Prop40
 90
        0
102
RTVSPost2010PropOp40
 70
     1
102
RTVSPost2010Prop41ColorIndex
 90
       18
102
RTVSPost2010Prop41ColorRGB
 90
        0
102
RTVSPost2010PropOp41
 70
     1
102
RTVSPost2010Prop42
 90
       50
102
RTVSPost2010PropOp42
 70
     1
102
RTVSPost2010Prop43
 90
        3
102
RTVSPost2010PropOp43
 70
     1
102
RTVSPost2010Prop44ColorIndex
 90
        5
102
RTVSPost2010Prop44ColorRGB
 90
      255
102
RTVSPost2010PropOp44
 70
     1
102
RTVSPost2010Prop45
280
     0
102
RTVSPost2010PropOp45
 70
     1
102
RTVSPost2010Prop46
 90
       50
102
RTVSPost2010PropOp46
 70
     1
102
RTVSPost2010Prop47
 90
       50
102
RTVSPost2010PropOp47
 70
     1
102
RTVSPost2010Prop48
 90
       50
102
RTVSPost2010PropOp48
 70
     1
102
RTVSPost2010Prop49
280
     0
102
RTVSPost2010PropOp49
 70
     1
102
RTVSPost2010Prop50
 90
       50
102
RTVSPost2010PropOp50
 70
     1
102
RTVSPost2010Prop51ColorIndex
 90
      256
102
RTVSPost2010Prop51ColorRGB
 90
-16777216
102
RTVSPost2010PropOp51
 70
     0
102
RTVSPost2010Prop52
140
1.0
102
RTVSPost2010PropOp52
 70
     0
102
RTVSPost2010Prop53
 90
        2
102
RTVSPost2010PropOp53
 70
     1
102
RTVSPost2010Prop54
  1
strokes_ogs.tif
102
RTVSPost2010PropOp54
 70
     1
102
RTVSPost2010Prop55
280
     0
102
RTVSPost2010PropOp55
 70
     1
102
RTVSPost2010Prop56
140
1.0
102
RTVSPost2010PropOp56
 70
     1
102
RTVSPost2010Prop57
140
1.0
102
RTVSPost2010PropOp57
 70
     1
102
RTVSPropertyOp0
 70
     1
102
RTVSPropertyOp1
 70
     1
102
RTVSPropertyOp2
 70
     1
102
RTVSPropertyOp3
 70
     1
102
RTVSPropertyOp4
 70
     1
102
RTVSPropertyOp5
 70
     1
102
RTVSPropertyOp6
 70
     1
102
RTVSPropertyOp7
 70
     1
102
RTVSPropertyOp8
 70
     1
102
RTVSPropertyOp9
 70
     1
102
RTVSPropertyOp10
 70
     1
102
RTVSPropertyOp11
 70
     1
102
RTVSPropertyOp12
 70
     1
102
RTVSPropertyOp13
 70
     1
102
RTVSPropertyOp14
 70
     1
102
RTVSPropertyOp15
 70
     1
102
RTVSPropertyOp16
 70
     1
102
RTVSPropertyOp17
 70
     1
102
RTVSPropertyOp18
 70
     1
102
RTVSPropertyOp19
 70
     1
102
RTVSPropertyOp20
 70
     1
102
RTVSPropertyOp21
 70
     1
102
RTVSPropertyOp22
 70
     1
102
RTVSPropertyOp23
 70
     1
102
RTVSPropertyOp24
 70
     1
102
RTVSPropertyOp25
 70
     1
102
RTVSPropertyOp26
 70
     1
102
RTVSPropertyOp27
 70
     1
102
RTVSPropertyOp28
 70
     1
102
RTVSPropertyOp29
 70
     1
102
RTVSPropertyOp30
 70
     1
102
RTVSPropertyOp31
 70
     1
102
RTVSPropertyOp32
 70
     1
102
RTVSPropertyOp33
 70
     1
102
RTVSPropertyOp34
 70
     1
102
RTVSPropertyOp35
 70
     1
102
RTVSPropertyOp36
 70
     1
102
RTVSPropertyOp37
 70
     1
102
RTVSPropertyOp38
 70
     1
102
RTVSPropertyOp39
 70
     1
102
RTVSPropertyOp40
 70
     1
102
RTVSPropertyOp41
 70
     1
102
RTVSPropertyOp42
 70
     1
102
RTVSPropertyOp43
 70
     1
102
RTVSPropertyOp44
 70
     1
102
RTVSPropertyOp45
 70
     1
102
RTVSPropertyOp46
 70
     1
102
RTVSPropertyOp47
 70
     1
102
RTVSPropertyOp48
 70
     1
102
RTVSPropertyOp49
 70
     1
102
RTVSPropertyOp50
 70
     1
102
RTVSPropertyOp51
 70
     0
102
RTVSPropertyOp52
 70
     0
102
RTVSPropertyOp53
 70
     1
102
RTVSPropertyOp54
 70
     1
102
RTVSPropertyOp55
 70
     1
102
RTVSPropertyOp56
 70
     1
102
RTVSPropertyOp57
 70
     1
102
RTVSPropertyOp58
 70
     1
102
RTVSPropertyOp59
 70
     1
102
RTVSPropertyOp60
 70
     1
102
RTVSPropertyOp61
 70
     1
102
RTVSPropertyOp62
 70
     1
  0
XRECORD
  5
2D0
102
{ACAD_REACTORS
330
2CF
102
}
330
2CF
100
AcDbXrecord
280
     1
102
RTVSPost2010Prop28
280
     0
102
RTVSPost2010PropOp28
 70
     1
102
RTVSPost2010Prop29
280
     1
102
RTVSPost2010PropOp29
 70
     1
102
RTVSPost2010Prop30
280
     1
102
RTVSPost2010PropOp30
 70
     1
102
RTVSPost2010Prop31
280
     0
102
RTVSPost2010PropOp31
 70
     1
102
RTVSPost2010Prop32
280
     0
102
RTVSPost2010PropOp32
 70
     1
102
RTVSPost2010Prop33
280
     0
102
RTVSPost2010PropOp33
 70
     1
102
RTVSPost2010Prop34
280
     0
102
RTVSPost2010PropOp34
 70
     1
102
RTVSPost2010Prop35
280
     0
102
RTVSPost2010PropOp35
 70
     1
102
RTVSPost2010Prop36
280
     0
102
RTVSPost2010PropOp36
 70
     1
102
RTVSPost2010Prop37
 90
       50
102
RTVSPost2010PropOp37
 70
     1
102
RTVSPost2010Prop38
140
0.0
102
RTVSPost2010PropOp38
 70
     1
102
RTVSPost2010Prop39
140
1.0
102
RTVSPost2010PropOp39
 70
     1
102
RTVSPost2010Prop40
 90
        0
102
RTVSPost2010PropOp40
 70
     1
102
RTVSPost2010Prop41ColorIndex
 90
       18
102
RTVSPost2010Prop41ColorRGB
 90
        0
102
RTVSPost2010PropOp41
 70
     1
102
RTVSPost2010Prop42
 90
       50
102
RTVSPost2010PropOp42
 70
     1
102
RTVSPost2010Prop43
 90
        3
102
RTVSPost2010PropOp43
 70
     1
102
RTVSPost2010Prop44ColorIndex
 90
        5
102
RTVSPost2010Prop44ColorRGB
 90
      255
102
RTVSPost2010PropOp44
 70
     1
102
RTVSPost2010Prop45
280
     0
102
RTVSPost2010PropOp45
 70
     1
102
RTVSPost2010Prop46
 90
       50
102
RTVSPost2010PropOp46
 70
     1
102
RTVSPost2010Prop47
 90
       50
102
RTVSPost2010PropOp47
 70
     1
102
RTVSPost2010Prop48
 90
       50
102
RTVSPost2010PropOp48
 70
     1
102
RTVSPost2010Prop49
280
     0
102
RTVSPost2010PropOp49
 70
     1
102
RTVSPost2010Prop50
 90
       50
102
RTVSPost2010PropOp50
 70
     1
102
RTVSPost2010Prop51ColorIndex
 90
      256
102
RTVSPost2010Prop51ColorRGB
 90
-16777216
102
RTVSPost2010PropOp51
 70
     0
102
RTVSPost2010Prop52
140
1.0
102
RTVSPost2010PropOp52
 70
     0
102
RTVSPost2010Prop53
 90
        2
102
RTVSPost2010PropOp53
 70
     1
102
RTVSPost2010Prop54
  1
strokes_ogs.tif
102
RTVSPost2010PropOp54
 70
     1
102
RTVSPost2010Prop55
280
     0
102
RTVSPost2010PropOp55
 70
     1
102
RTVSPost2010Prop56
140
1.0
102
RTVSPost2010PropOp56
 70
     1
102
RTVSPost2010Prop57
140
1.0
102
RTVSPost2010PropOp57
 70
     1
102
RTVSPropertyOp0
 70
     1
102
RTVSPropertyOp1
 70
     1
102
RTVSPropertyOp2
 70
     1
102
RTVSPropertyOp3
 70
     1
102
RTVSPropertyOp4
 70
     1
102
RTVSPropertyOp5
 70
     1
102
RTVSPropertyOp6
 70
     1
102
RTVSPropertyOp7
 70
     1
102
RTVSPropertyOp8
 70
     1
102
RTVSPropertyOp9
 70
     1
102
RTVSPropertyOp10
 70
     1
102
RTVSPropertyOp11
 70
     1
102
RTVSPropertyOp12
 70
     1
102
RTVSPropertyOp13
 70
     1
102
RTVSPropertyOp14
 70
     1
102
RTVSPropertyOp15
 70
     1
102
RTVSPropertyOp16
 70
     1
102
RTVSPropertyOp17
 70
     1
102
RTVSPropertyOp18
 70
     1
102
RTVSPropertyOp19
 70
     1
102
RTVSPropertyOp20
 70
     1
102
RTVSPropertyOp21
 70
     1
102
RTVSPropertyOp22
 70
     1
102
RTVSPropertyOp23
 70
     1
102
RTVSPropertyOp24
 70
     1
102
RTVSPropertyOp25
 70
     1
102
RTVSPropertyOp26
 70
     1
102
RTVSPropertyOp27
 70
     1
102
RTVSPropertyOp28
 70
     1
102
RTVSPropertyOp29
 70
     1
102
RTVSPropertyOp30
 70
     1
102
RTVSPropertyOp31
 70
     1
102
RTVSPropertyOp32
 70
     1
102
RTVSPropertyOp33
 70
     1
102
RTVSPropertyOp34
 70
     1
102
RTVSPropertyOp35
 70
     1
102
RTVSPropertyOp36
 70
     1
102
RTVSPropertyOp37
 70
     1
102
RTVSPropertyOp38
 70
     1
102
RTVSPropertyOp39
 70
     1
102
RTVSPropertyOp40
 70
     1
102
RTVSPropertyOp41
 70
     1
102
RTVSPropertyOp42
 70
     1
102
RTVSPropertyOp43
 70
     1
102
RTVSPropertyOp44
 70
     1
102
RTVSPropertyOp45
 70
     1
102
RTVSPropertyOp46
 70
     1
102
RTVSPropertyOp47
 70
     1
102
RTVSPropertyOp48
 70
     1
102
RTVSPropertyOp49
 70
     1
102
RTVSPropertyOp50
 70
     1
102
RTVSPropertyOp51
 70
     0
102
RTVSPropertyOp52
 70
     0
102
RTVSPropertyOp53
 70
     1
102
RTVSPropertyOp54
 70
     1
102
RTVSPropertyOp55
 70
     1
102
RTVSPropertyOp56
 70
     1
102
RTVSPropertyOp57
 70
     1
102
RTVSPropertyOp58
 70
     1
102
RTVSPropertyOp59
 70
     1
102
RTVSPropertyOp60
 70
     1
102
RTVSPropertyOp61
 70
     1
102
RTVSPropertyOp62
 70
     1
  0
XRECORD
  5
2EA
102
{ACAD_REACTORS
330
2E9
102
}
330
2E9
100
AcDbXrecord
280
     1
102
RTVSPost2010Prop28
280
     0
102
RTVSPost2010PropOp28
 70
     0
102
RTVSPost2010Prop29
280
     1
102
RTVSPost2010PropOp29
 70
     0
102
RTVSPost2010Prop30
280
     1
102
RTVSPost2010PropOp30
 70
     0
102
RTVSPost2010Prop31
280
     0
102
RTVSPost2010PropOp31
 70
     0
102
RTVSPost2010Prop32
280
     0
102
RTVSPost2010PropOp32
 70
     0
102
RTVSPost2010Prop33
280
     0
102
RTVSPost2010PropOp33
 70
     0
102
RTVSPost2010Prop34
280
     0
102
RTVSPost2010PropOp34
 70
     0
102
RTVSPost2010Prop35
280
     0
102
RTVSPost2010PropOp35
 70
     0
102
RTVSPost2010Prop36
280
     0
102
RTVSPost2010PropOp36
 70
     0
102
RTVSPost2010Prop37
 90
       50
102
RTVSPost2010PropOp37
 70
     0
102
RTVSPost2010Prop38
140
0.0
102
RTVSPost2010PropOp38
 70
     0
102
RTVSPost2010Prop39
140
1.0
102
RTVSPost2010PropOp39
 70
     0
102
RTVSPost2010Prop40
 90
        0
102
RTVSPost2010PropOp40
 70
     0
102
RTVSPost2010Prop41ColorIndex
 90
       18
102
RTVSPost2010Prop41ColorRGB
 90
        0
102
RTVSPost2010PropOp41
 70
     0
102
RTVSPost2010Prop42
 90
       50
102
RTVSPost2010PropOp42
 70
     0
102
RTVSPost2010Prop43
 90
        3
102
RTVSPost2010PropOp43
 70
     0
102
RTVSPost2010Prop44ColorIndex
 90
        5
102
RTVSPost2010Prop44ColorRGB
 90
      255
102
RTVSPost2010PropOp44
 70
     0
102
RTVSPost2010Prop45
280
     0
102
RTVSPost2010PropOp45
 70
     0
102
RTVSPost2010Prop46
 90
       50
102
RTVSPost2010PropOp46
 70
     0
102
RTVSPost2010Prop47
 90
       50
102
RTVSPost2010PropOp47
 70
     0
102
RTVSPost2010Prop48
 90
       50
102
RTVSPost2010PropOp48
 70
     0
102
RTVSPost2010Prop49
280
     0
102
RTVSPost2010PropOp49
 70
     0
102
RTVSPost2010Prop50
 90
       50
102
RTVSPost2010PropOp50
 70
     0
102
RTVSPost2010Prop51ColorIndex
 90
      256
102
RTVSPost2010Prop51ColorRGB
 90
-16777216
102
RTVSPost2010PropOp51
 70
     0
102
RTVSPost2010Prop52
140
1.0
102
RTVSPost2010PropOp52
 70
     0
102
RTVSPost2010Prop53
 90
        2
102
RTVSPost2010PropOp53
 70
     0
102
RTVSPost2010Prop54
  1
strokes_ogs.tif
102
RTVSPost2010PropOp54
 70
     0
102
RTVSPost2010Prop55
280
     0
102
RTVSPost2010PropOp55
 70
     0
102
RTVSPost2010Prop56
140
1.0
102
RTVSPost2010PropOp56
 70
     0
102
RTVSPost2010Prop57
140
1.0
102
RTVSPost2010PropOp57
 70
     0
102
RTVSPropertyOp0
 70
     0
102
RTVSPropertyOp1
 70
     0
102
RTVSPropertyOp2
 70
     0
102
RTVSPropertyOp3
 70
     0
102
RTVSPropertyOp4
 70
     0
102
RTVSPropertyOp5
 70
     0
102
RTVSPropertyOp6
 70
     0
102
RTVSPropertyOp7
 70
     0
102
RTVSPropertyOp8
 70
     0
102
RTVSPropertyOp9
 70
     0
102
RTVSPropertyOp10
 70
     0
102
RTVSPropertyOp11
 70
     0
102
RTVSPropertyOp12
 70
     0
102
RTVSPropertyOp13
 70
     0
102
RTVSPropertyOp14
 70
     2
102
RTVSPropertyOp15
 70
     0
102
RTVSPropertyOp16
 70
     0
102
RTVSPropertyOp17
 70
     0
102
RTVSPropertyOp18
 70
     0
102
RTVSPropertyOp19
 70
     0
102
RTVSPropertyOp20
 70
     0
102
RTVSPropertyOp21
 70
     0
102
RTVSPropertyOp22
 70
     0
102
RTVSPropertyOp23
 70
     0
102
RTVSPropertyOp24
 70
     0
102
RTVSPropertyOp25
 70
     0
102
RTVSPropertyOp26
 70
     0
102
RTVSPropertyOp27
 70
     0
102
RTVSPropertyOp28
 70
     0
102
RTVSPropertyOp29
 70
     0
102
RTVSPropertyOp30
 70
     0
102
RTVSPropertyOp31
 70
     0
102
RTVSPropertyOp32
 70
     0
102
RTVSPropertyOp33
 70
     0
102
RTVSPropertyOp34
 70
     0
102
RTVSPropertyOp35
 70
     0
102
RTVSPropertyOp36
 70
     0
102
RTVSPropertyOp37
 70
     0
102
RTVSPropertyOp38
 70
     0
102
RTVSPropertyOp39
 70
     0
102
RTVSPropertyOp40
 70
     0
102
RTVSPropertyOp41
 70
     0
102
RTVSPropertyOp42
 70
     0
102
RTVSPropertyOp43
 70
     0
102
RTVSPropertyOp44
 70
     0
102
RTVSPropertyOp45
 70
     0
102
RTVSPropertyOp46
 70
     0
102
RTVSPropertyOp47
 70
     0
102
RTVSPropertyOp48
 70
     0
102
RTVSPropertyOp49
 70
     0
102
RTVSPropertyOp50
 70
     0
102
RTVSPropertyOp51
 70
     0
102
RTVSPropertyOp52
 70
     0
102
RTVSPropertyOp53
 70
     0
102
RTVSPropertyOp54
 70
     0
102
RTVSPropertyOp55
 70
     0
102
RTVSPropertyOp56
 70
     0
102
RTVSPropertyOp57
 70
     0
102
RTVSPropertyOp58
 70
     0
102
RTVSPropertyOp59
 70
     0
102
RTVSPropertyOp60
 70
     0
102
RTVSPropertyOp61
 70
     0
102
RTVSPropertyOp62
 70
     0
  0
XRECORD
  5
2D8
102
{ACAD_REACTORS
330
2D7
102
}
330
2D7
100
AcDbXrecord
280
     1
102
RTVSPost2010Prop28
280
     0
102
RTVSPost2010PropOp28
 70
     1
102
RTVSPost2010Prop29
280
     1
102
RTVSPost2010PropOp29
 70
     1
102
RTVSPost2010Prop30
280
     1
102
RTVSPost2010PropOp30
 70
     1
102
RTVSPost2010Prop31
280
     0
102
RTVSPost2010PropOp31
 70
     1
102
RTVSPost2010Prop32
280
     0
102
RTVSPost2010PropOp32
 70
     1
102
RTVSPost2010Prop33
280
     0
102
RTVSPost2010PropOp33
 70
     1
102
RTVSPost2010Prop34
280
     0
102
RTVSPost2010PropOp34
 70
     1
102
RTVSPost2010Prop35
280
     0
102
RTVSPost2010PropOp35
 70
     1
102
RTVSPost2010Prop36
280
     0
102
RTVSPost2010PropOp36
 70
     1
102
RTVSPost2010Prop37
 90
       50
102
RTVSPost2010PropOp37
 70
     1
102
RTVSPost2010Prop38
140
0.0
102
RTVSPost2010PropOp38
 70
     1
102
RTVSPost2010Prop39
140
1.0
102
RTVSPost2010PropOp39
 70
     1
102
RTVSPost2010Prop40
 90
        0
102
RTVSPost2010PropOp40
 70
     1
102
RTVSPost2010Prop41ColorIndex
 90
       18
102
RTVSPost2010Prop41ColorRGB
 90
        0
102
RTVSPost2010PropOp41
 70
     1
102
RTVSPost2010Prop42
 90
       50
102
RTVSPost2010PropOp42
 70
     1
102
RTVSPost2010Prop43
 90
        3
102
RTVSPost2010PropOp43
 70
     1
102
RTVSPost2010Prop44ColorIndex
 90
        5
102
RTVSPost2010Prop44ColorRGB
 90
      255
102
RTVSPost2010PropOp44
 70
     1
102
RTVSPost2010Prop45
280
     0
102
RTVSPost2010PropOp45
 70
     1
102
RTVSPost2010Prop46
 90
       50
102
RTVSPost2010PropOp46
 70
     1
102
RTVSPost2010Prop47
 90
       50
102
RTVSPost2010PropOp47
 70
     1
102
RTVSPost2010Prop48
 90
       50
102
RTVSPost2010PropOp48
 70
     1
102
RTVSPost2010Prop49
280
     0
102
RTVSPost2010PropOp49
 70
     1
102
RTVSPost2010Prop50
 90
       50
102
RTVSPost2010PropOp50
 70
     1
102
RTVSPost2010Prop51ColorIndex
 90
      256
102
RTVSPost2010Prop51ColorRGB
 90
-16777216
102
RTVSPost2010PropOp51
 70
     0
102
RTVSPost2010Prop52
140
1.0
102
RTVSPost2010PropOp52
 70
     0
102
RTVSPost2010Prop53
 90
        2
102
RTVSPost2010PropOp53
 70
     1
102
RTVSPost2010Prop54
  1
strokes_ogs.tif
102
RTVSPost2010PropOp54
 70
     1
102
RTVSPost2010Prop55
280
     0
102
RTVSPost2010PropOp55
 70
     1
102
RTVSPost2010Prop56
140
1.0
102
RTVSPost2010PropOp56
 70
     1
102
RTVSPost2010Prop57
140
1.0
102
RTVSPost2010PropOp57
 70
     1
102
RTVSPropertyOp0
 70
     1
102
RTVSPropertyOp1
 70
     1
102
RTVSPropertyOp2
 70
     1
102
RTVSPropertyOp3
 70
     1
102
RTVSPropertyOp4
 70
     1
102
RTVSPropertyOp5
 70
     1
102
RTVSPropertyOp6
 70
     1
102
RTVSPropertyOp7
 70
     1
102
RTVSPropertyOp8
 70
     1
102
RTVSPropertyOp9
 70
     1
102
RTVSPropertyOp10
 70
     1
102
RTVSPropertyOp11
 70
     1
102
RTVSPropertyOp12
 70
     1
102
RTVSPropertyOp13
 70
     1
102
RTVSPropertyOp14
 70
     1
102
RTVSPropertyOp15
 70
     1
102
RTVSPropertyOp16
 70
     1
102
RTVSPropertyOp17
 70
     1
102
RTVSPropertyOp18
 70
     1
102
RTVSPropertyOp19
 70
     1
102
RTVSPropertyOp20
 70
     1
102
RTVSPropertyOp21
 70
     1
102
RTVSPropertyOp22
 70
     1
102
RTVSPropertyOp23
 70
     1
102
RTVSPropertyOp24
 70
     1
102
RTVSPropertyOp25
 70
     1
102
RTVSPropertyOp26
 70
     1
102
RTVSPropertyOp27
 70
     1
102
RTVSPropertyOp28
 70
     1
102
RTVSPropertyOp29
 70
     1
102
RTVSPropertyOp30
 70
     1
102
RTVSPropertyOp31
 70
     1
102
RTVSPropertyOp32
 70
     1
102
RTVSPropertyOp33
 70
     1
102
RTVSPropertyOp34
 70
     1
102
RTVSPropertyOp35
 70
     1
102
RTVSPropertyOp36
 70
     1
102
RTVSPropertyOp37
 70
     1
102
RTVSPropertyOp38
 70
     1
102
RTVSPropertyOp39
 70
     1
102
RTVSPropertyOp40
 70
     1
102
RTVSPropertyOp41
 70
     1
102
RTVSPropertyOp42
 70
     1
102
RTVSPropertyOp43
 70
     1
102
RTVSPropertyOp44
 70
     1
102
RTVSPropertyOp45
 70
     1
102
RTVSPropertyOp46
 70
     1
102
RTVSPropertyOp47
 70
     1
102
RTVSPropertyOp48
 70
     1
102
RTVSPropertyOp49
 70
     1
102
RTVSPropertyOp50
 70
     1
102
RTVSPropertyOp51
 70
     0
102
RTVSPropertyOp52
 70
     0
102
RTVSPropertyOp53
 70
     1
102
RTVSPropertyOp54
 70
     1
102
RTVSPropertyOp55
 70
     1
102
RTVSPropertyOp56
 70
     1
102
RTVSPropertyOp57
 70
     1
102
RTVSPropertyOp58
 70
     1
102
RTVSPropertyOp59
 70
     1
102
RTVSPropertyOp60
 70
     1
102
RTVSPropertyOp61
 70
     1
102
RTVSPropertyOp62
 70
     1
  0
XRECORD
  5
2BC
102
{ACAD_REACTORS
330
2BB
102
}
330
2BB
100
AcDbXrecord
280
     1
102
RTVSPost2010Prop28
280
     0
102
RTVSPost2010PropOp28
 70
     1
102
RTVSPost2010Prop29
280
     1
102
RTVSPost2010PropOp29
 70
     1
102
RTVSPost2010Prop30
280
     1
102
RTVSPost2010PropOp30
 70
     1
102
RTVSPost2010Prop31
280
     0
102
RTVSPost2010PropOp31
 70
     1
102
RTVSPost2010Prop32
280
     0
102
RTVSPost2010PropOp32
 70
     1
102
RTVSPost2010Prop33
280
     0
102
RTVSPost2010PropOp33
 70
     1
102
RTVSPost2010Prop34
280
     0
102
RTVSPost2010PropOp34
 70
     1
102
RTVSPost2010Prop35
280
     0
102
RTVSPost2010PropOp35
 70
     1
102
RTVSPost2010Prop36
280
     0
102
RTVSPost2010PropOp36
 70
     1
102
RTVSPost2010Prop37
 90
       50
102
RTVSPost2010PropOp37
 70
     1
102
RTVSPost2010Prop38
140
0.0
102
RTVSPost2010PropOp38
 70
     1
102
RTVSPost2010Prop39
140
1.0
102
RTVSPost2010PropOp39
 70
     1
102
RTVSPost2010Prop40
 90
        0
102
RTVSPost2010PropOp40
 70
     1
102
RTVSPost2010Prop41ColorIndex
 90
       18
102
RTVSPost2010Prop41ColorRGB
 90
        0
102
RTVSPost2010PropOp41
 70
     1
102
RTVSPost2010Prop42
 90
       50
102
RTVSPost2010PropOp42
 70
     1
102
RTVSPost2010Prop43
 90
        3
102
RTVSPost2010PropOp43
 70
     1
102
RTVSPost2010Prop44ColorIndex
 90
        5
102
RTVSPost2010Prop44ColorRGB
 90
      255
102
RTVSPost2010PropOp44
 70
     1
102
RTVSPost2010Prop45
280
     0
102
RTVSPost2010PropOp45
 70
     1
102
RTVSPost2010Prop46
 90
       50
102
RTVSPost2010PropOp46
 70
     1
102
RTVSPost2010Prop47
 90
       50
102
RTVSPost2010PropOp47
 70
     1
102
RTVSPost2010Prop48
 90
       50
102
RTVSPost2010PropOp48
 70
     1
102
RTVSPost2010Prop49
280
     0
102
RTVSPost2010PropOp49
 70
     1
102
RTVSPost2010Prop50
 90
       50
102
RTVSPost2010PropOp50
 70
     1
102
RTVSPost2010Prop51ColorIndex
 90
      256
102
RTVSPost2010Prop51ColorRGB
 90
-16777216
102
RTVSPost2010PropOp51
 70
     0
102
RTVSPost2010Prop52
140
1.0
102
RTVSPost2010PropOp52
 70
     0
102
RTVSPost2010Prop53
 90
        2
102
RTVSPost2010PropOp53
 70
     1
102
RTVSPost2010Prop54
  1
strokes_ogs.tif
102
RTVSPost2010PropOp54
 70
     1
102
RTVSPost2010Prop55
280
     0
102
RTVSPost2010PropOp55
 70
     1
102
RTVSPost2010Prop56
140
1.0
102
RTVSPost2010PropOp56
 70
     1
102
RTVSPost2010Prop57
140
1.0
102
RTVSPost2010PropOp57
 70
     1
102
RTVSPropertyOp0
 70
     1
102
RTVSPropertyOp1
 70
     1
102
RTVSPropertyOp2
 70
     1
102
RTVSPropertyOp3
 70
     1
102
RTVSPropertyOp4
 70
     1
102
RTVSPropertyOp5
 70
     1
102
RTVSPropertyOp6
 70
     1
102
RTVSPropertyOp7
 70
     1
102
RTVSPropertyOp8
 70
     1
102
RTVSPropertyOp9
 70
     1
102
RTVSPropertyOp10
 70
     1
102
RTVSPropertyOp11
 70
     1
102
RTVSPropertyOp12
 70
     1
102
RTVSPropertyOp13
 70
     1
102
RTVSPropertyOp14
 70
     1
102
RTVSPropertyOp15
 70
     1
102
RTVSPropertyOp16
 70
     1
102
RTVSPropertyOp17
 70
     1
102
RTVSPropertyOp18
 70
     1
102
RTVSPropertyOp19
 70
     1
102
RTVSPropertyOp20
 70
     1
102
RTVSPropertyOp21
 70
     1
102
RTVSPropertyOp22
 70
     1
102
RTVSPropertyOp23
 70
     1
102
RTVSPropertyOp24
 70
     1
102
RTVSPropertyOp25
 70
     1
102
RTVSPropertyOp26
 70
     1
102
RTVSPropertyOp27
 70
     1
102
RTVSPropertyOp28
 70
     1
102
RTVSPropertyOp29
 70
     1
102
RTVSPropertyOp30
 70
     1
102
RTVSPropertyOp31
 70
     1
102
RTVSPropertyOp32
 70
     1
102
RTVSPropertyOp33
 70
     1
102
RTVSPropertyOp34
 70
     1
102
RTVSPropertyOp35
 70
     1
102
RTVSPropertyOp36
 70
     1
102
RTVSPropertyOp37
 70
     1
102
RTVSPropertyOp38
 70
     1
102
RTVSPropertyOp39
 70
     1
102
RTVSPropertyOp40
 70
     1
102
RTVSPropertyOp41
 70
     1
102
RTVSPropertyOp42
 70
     1
102
RTVSPropertyOp43
 70
     1
102
RTVSPropertyOp44
 70
     1
102
RTVSPropertyOp45
 70
     1
102
RTVSPropertyOp46
 70
     1
102
RTVSPropertyOp47
 70
     1
102
RTVSPropertyOp48
 70
     1
102
RTVSPropertyOp49
 70
     1
102
RTVSPropertyOp50
 70
     1
102
RTVSPropertyOp51
 70
     0
102
RTVSPropertyOp52
 70
     0
102
RTVSPropertyOp53
 70
     1
102
RTVSPropertyOp54
 70
     1
102
RTVSPropertyOp55
 70
     1
102
RTVSPropertyOp56
 70
     1
102
RTVSPropertyOp57
 70
     1
102
RTVSPropertyOp58
 70
     1
102
RTVSPropertyOp59
 70
     1
102
RTVSPropertyOp60
 70
     1
102
RTVSPropertyOp61
 70
     1
102
RTVSPropertyOp62
 70
     1
  0
XRECORD
  5
2BE
102
{ACAD_REACTORS
330
2BD
102
}
330
2BD
100
AcDbXrecord
280
     1
102
RTVSPost2010Prop28
280
     0
102
RTVSPost2010PropOp28
 70
     1
102
RTVSPost2010Prop29
280
     1
102
RTVSPost2010PropOp29
 70
     1
102
RTVSPost2010Prop30
280
     1
102
RTVSPost2010PropOp30
 70
     1
102
RTVSPost2010Prop31
280
     0
102
RTVSPost2010PropOp31
 70
     1
102
RTVSPost2010Prop32
280
     0
102
RTVSPost2010PropOp32
 70
     1
102
RTVSPost2010Prop33
280
     0
102
RTVSPost2010PropOp33
 70
     1
102
RTVSPost2010Prop34
280
     0
102
RTVSPost2010PropOp34
 70
     1
102
RTVSPost2010Prop35
280
     0
102
RTVSPost2010PropOp35
 70
     1
102
RTVSPost2010Prop36
280
     0
102
RTVSPost2010PropOp36
 70
     1
102
RTVSPost2010Prop37
 90
       50
102
RTVSPost2010PropOp37
 70
     1
102
RTVSPost2010Prop38
140
0.0
102
RTVSPost2010PropOp38
 70
     1
102
RTVSPost2010Prop39
140
1.0
102
RTVSPost2010PropOp39
 70
     1
102
RTVSPost2010Prop40
 90
        0
102
RTVSPost2010PropOp40
 70
     1
102
RTVSPost2010Prop41ColorIndex
 90
       18
102
RTVSPost2010Prop41ColorRGB
 90
        0
102
RTVSPost2010PropOp41
 70
     1
102
RTVSPost2010Prop42
 90
       50
102
RTVSPost2010PropOp42
 70
     1
102
RTVSPost2010Prop43
 90
        3
102
RTVSPost2010PropOp43
 70
     1
102
RTVSPost2010Prop44ColorIndex
 90
        5
102
RTVSPost2010Prop44ColorRGB
 90
      255
102
RTVSPost2010PropOp44
 70
     1
102
RTVSPost2010Prop45
280
     0
102
RTVSPost2010PropOp45
 70
     1
102
RTVSPost2010Prop46
 90
       50
102
RTVSPost2010PropOp46
 70
     1
102
RTVSPost2010Prop47
 90
       50
102
RTVSPost2010PropOp47
 70
     1
102
RTVSPost2010Prop48
 90
       50
102
RTVSPost2010PropOp48
 70
     1
102
RTVSPost2010Prop49
280
     0
102
RTVSPost2010PropOp49
 70
     1
102
RTVSPost2010Prop50
 90
       50
102
RTVSPost2010PropOp50
 70
     1
102
RTVSPost2010Prop51ColorIndex
 90
      256
102
RTVSPost2010Prop51ColorRGB
 90
-16777216
102
RTVSPost2010PropOp51
 70
     0
102
RTVSPost2010Prop52
140
1.0
102
RTVSPost2010PropOp52
 70
     0
102
RTVSPost2010Prop53
 90
        2
102
RTVSPost2010PropOp53
 70
     1
102
RTVSPost2010Prop54
  1
strokes_ogs.tif
102
RTVSPost2010PropOp54
 70
     1
102
RTVSPost2010Prop55
280
     0
102
RTVSPost2010PropOp55
 70
     1
102
RTVSPost2010Prop56
140
1.0
102
RTVSPost2010PropOp56
 70
     1
102
RTVSPost2010Prop57
140
1.0
102
RTVSPost2010PropOp57
 70
     1
102
RTVSPropertyOp0
 70
     1
102
RTVSPropertyOp1
 70
     1
102
RTVSPropertyOp2
 70
     1
102
RTVSPropertyOp3
 70
     1
102
RTVSPropertyOp4
 70
     1
102
RTVSPropertyOp5
 70
     1
102
RTVSPropertyOp6
 70
     1
102
RTVSPropertyOp7
 70
     1
102
RTVSPropertyOp8
 70
     1
102
RTVSPropertyOp9
 70
     1
102
RTVSPropertyOp10
 70
     1
102
RTVSPropertyOp11
 70
     1
102
RTVSPropertyOp12
 70
     1
102
RTVSPropertyOp13
 70
     1
102
RTVSPropertyOp14
 70
     1
102
RTVSPropertyOp15
 70
     1
102
RTVSPropertyOp16
 70
     1
102
RTVSPropertyOp17
 70
     1
102
RTVSPropertyOp18
 70
     1
102
RTVSPropertyOp19
 70
     1
102
RTVSPropertyOp20
 70
     1
102
RTVSPropertyOp21
 70
     1
102
RTVSPropertyOp22
 70
     1
102
RTVSPropertyOp23
 70
     1
102
RTVSPropertyOp24
 70
     1
102
RTVSPropertyOp25
 70
     1
102
RTVSPropertyOp26
 70
     1
102
RTVSPropertyOp27
 70
     1
102
RTVSPropertyOp28
 70
     1
102
RTVSPropertyOp29
 70
     1
102
RTVSPropertyOp30
 70
     1
102
RTVSPropertyOp31
 70
     1
102
RTVSPropertyOp32
 70
     1
102
RTVSPropertyOp33
 70
     1
102
RTVSPropertyOp34
 70
     1
102
RTVSPropertyOp35
 70
     1
102
RTVSPropertyOp36
 70
     1
102
RTVSPropertyOp37
 70
     1
102
RTVSPropertyOp38
 70
     1
102
RTVSPropertyOp39
 70
     1
102
RTVSPropertyOp40
 70
     1
102
RTVSPropertyOp41
 70
     1
102
RTVSPropertyOp42
 70
     1
102
RTVSPropertyOp43
 70
     1
102
RTVSPropertyOp44
 70
     1
102
RTVSPropertyOp45
 70
     1
102
RTVSPropertyOp46
 70
     1
102
RTVSPropertyOp47
 70
     1
102
RTVSPropertyOp48
 70
     1
102
RTVSPropertyOp49
 70
     1
102
RTVSPropertyOp50
 70
     1
102
RTVSPropertyOp51
 70
     0
102
RTVSPropertyOp52
 70
     0
102
RTVSPropertyOp53
 70
     1
102
RTVSPropertyOp54
 70
     1
102
RTVSPropertyOp55
 70
     1
102
RTVSPropertyOp56
 70
     1
102
RTVSPropertyOp57
 70
     1
102
RTVSPropertyOp58
 70
     1
102
RTVSPropertyOp59
 70
     1
102
RTVSPropertyOp60
 70
     1
102
RTVSPropertyOp61
 70
     1
102
RTVSPropertyOp62
 70
     1
  0
XRECORD
  5
2C0
102
{ACAD_REACTORS
330
2BF
102
}
330
2BF
100
AcDbXrecord
280
     1
102
RTVSPost2010Prop28
280
     0
102
RTVSPost2010PropOp28
 70
     1
102
RTVSPost2010Prop29
280
     1
102
RTVSPost2010PropOp29
 70
     1
102
RTVSPost2010Prop30
280
     1
102
RTVSPost2010PropOp30
 70
     1
102
RTVSPost2010Prop31
280
     0
102
RTVSPost2010PropOp31
 70
     1
102
RTVSPost2010Prop32
280
     0
102
RTVSPost2010PropOp32
 70
     1
102
RTVSPost2010Prop33
280
     0
102
RTVSPost2010PropOp33
 70
     1
102
RTVSPost2010Prop34
280
     0
102
RTVSPost2010PropOp34
 70
     1
102
RTVSPost2010Prop35
280
     0
102
RTVSPost2010PropOp35
 70
     1
102
RTVSPost2010Prop36
280
     0
102
RTVSPost2010PropOp36
 70
     1
102
RTVSPost2010Prop37
 90
       50
102
RTVSPost2010PropOp37
 70
     1
102
RTVSPost2010Prop38
140
0.0
102
RTVSPost2010PropOp38
 70
     1
102
RTVSPost2010Prop39
140
1.0
102
RTVSPost2010PropOp39
 70
     1
102
RTVSPost2010Prop40
 90
        0
102
RTVSPost2010PropOp40
 70
     1
102
RTVSPost2010Prop41ColorIndex
 90
       18
102
RTVSPost2010Prop41ColorRGB
 90
        0
102
RTVSPost2010PropOp41
 70
     1
102
RTVSPost2010Prop42
 90
       50
102
RTVSPost2010PropOp42
 70
     1
102
RTVSPost2010Prop43
 90
        3
102
RTVSPost2010PropOp43
 70
     1
102
RTVSPost2010Prop44ColorIndex
 90
        5
102
RTVSPost2010Prop44ColorRGB
 90
      255
102
RTVSPost2010PropOp44
 70
     1
102
RTVSPost2010Prop45
280
     0
102
RTVSPost2010PropOp45
 70
     1
102
RTVSPost2010Prop46
 90
       50
102
RTVSPost2010PropOp46
 70
     1
102
RTVSPost2010Prop47
 90
       50
102
RTVSPost2010PropOp47
 70
     1
102
RTVSPost2010Prop48
 90
       50
102
RTVSPost2010PropOp48
 70
     1
102
RTVSPost2010Prop49
280
     0
102
RTVSPost2010PropOp49
 70
     1
102
RTVSPost2010Prop50
 90
       50
102
RTVSPost2010PropOp50
 70
     1
102
RTVSPost2010Prop51ColorIndex
 90
      256
102
RTVSPost2010Prop51ColorRGB
 90
-16777216
102
RTVSPost2010PropOp51
 70
     0
102
RTVSPost2010Prop52
140
1.0
102
RTVSPost2010PropOp52
 70
     0
102
RTVSPost2010Prop53
 90
        2
102
RTVSPost2010PropOp53
 70
     1
102
RTVSPost2010Prop54
  1
strokes_ogs.tif
102
RTVSPost2010PropOp54
 70
     1
102
RTVSPost2010Prop55
280
     0
102
RTVSPost2010PropOp55
 70
     1
102
RTVSPost2010Prop56
140
1.0
102
RTVSPost2010PropOp56
 70
     1
102
RTVSPost2010Prop57
140
1.0
102
RTVSPost2010PropOp57
 70
     1
102
RTVSPropertyOp0
 70
     1
102
RTVSPropertyOp1
 70
     1
102
RTVSPropertyOp2
 70
     1
102
RTVSPropertyOp3
 70
     1
102
RTVSPropertyOp4
 70
     1
102
RTVSPropertyOp5
 70
     1
102
RTVSPropertyOp6
 70
     1
102
RTVSPropertyOp7
 70
     1
102
RTVSPropertyOp8
 70
     1
102
RTVSPropertyOp9
 70
     1
102
RTVSPropertyOp10
 70
     1
102
RTVSPropertyOp11
 70
     1
102
RTVSPropertyOp12
 70
     1
102
RTVSPropertyOp13
 70
     1
102
RTVSPropertyOp14
 70
     1
102
RTVSPropertyOp15
 70
     1
102
RTVSPropertyOp16
 70
     1
102
RTVSPropertyOp17
 70
     1
102
RTVSPropertyOp18
 70
     1
102
RTVSPropertyOp19
 70
     1
102
RTVSPropertyOp20
 70
     1
102
RTVSPropertyOp21
 70
     1
102
RTVSPropertyOp22
 70
     1
102
RTVSPropertyOp23
 70
     1
102
RTVSPropertyOp24
 70
     1
102
RTVSPropertyOp25
 70
     1
102
RTVSPropertyOp26
 70
     1
102
RTVSPropertyOp27
 70
     1
102
RTVSPropertyOp28
 70
     1
102
RTVSPropertyOp29
 70
     1
102
RTVSPropertyOp30
 70
     1
102
RTVSPropertyOp31
 70
     1
102
RTVSPropertyOp32
 70
     1
102
RTVSPropertyOp33
 70
     1
102
RTVSPropertyOp34
 70
     1
102
RTVSPropertyOp35
 70
     1
102
RTVSPropertyOp36
 70
     1
102
RTVSPropertyOp37
 70
     1
102
RTVSPropertyOp38
 70
     1
102
RTVSPropertyOp39
 70
     1
102
RTVSPropertyOp40
 70
     1
102
RTVSPropertyOp41
 70
     1
102
RTVSPropertyOp42
 70
     1
102
RTVSPropertyOp43
 70
     1
102
RTVSPropertyOp44
 70
     1
102
RTVSPropertyOp45
 70
     1
102
RTVSPropertyOp46
 70
     1
102
RTVSPropertyOp47
 70
     1
102
RTVSPropertyOp48
 70
     1
102
RTVSPropertyOp49
 70
     1
102
RTVSPropertyOp50
 70
     1
102
RTVSPropertyOp51
 70
     0
102
RTVSPropertyOp52
 70
     0
102
RTVSPropertyOp53
 70
     1
102
RTVSPropertyOp54
 70
     1
102
RTVSPropertyOp55
 70
     1
102
RTVSPropertyOp56
 70
     1
102
RTVSPropertyOp57
 70
     1
102
RTVSPropertyOp58
 70
     1
102
RTVSPropertyOp59
 70
     1
102
RTVSPropertyOp60
 70
     1
102
RTVSPropertyOp61
 70
     1
102
RTVSPropertyOp62
 70
     1
  0
XRECORD
  5
2C2
102
{ACAD_REACTORS
330
2C1
102
}
330
2C1
100
AcDbXrecord
280
     1
102
RTVSPost2010Prop28
280
     0
102
RTVSPost2010PropOp28
 70
     1
102
RTVSPost2010Prop29
280
     1
102
RTVSPost2010PropOp29
 70
     1
102
RTVSPost2010Prop30
280
     1
102
RTVSPost2010PropOp30
 70
     1
102
RTVSPost2010Prop31
280
     0
102
RTVSPost2010PropOp31
 70
     1
102
RTVSPost2010Prop32
280
     0
102
RTVSPost2010PropOp32
 70
     1
102
RTVSPost2010Prop33
280
     0
102
RTVSPost2010PropOp33
 70
     1
102
RTVSPost2010Prop34
280
     0
102
RTVSPost2010PropOp34
 70
     1
102
RTVSPost2010Prop35
280
     0
102
RTVSPost2010PropOp35
 70
     1
102
RTVSPost2010Prop36
280
     0
102
RTVSPost2010PropOp36
 70
     1
102
RTVSPost2010Prop37
 90
       50
102
RTVSPost2010PropOp37
 70
     1
102
RTVSPost2010Prop38
140
0.0
102
RTVSPost2010PropOp38
 70
     1
102
RTVSPost2010Prop39
140
1.0
102
RTVSPost2010PropOp39
 70
     1
102
RTVSPost2010Prop40
 90
        0
102
RTVSPost2010PropOp40
 70
     1
102
RTVSPost2010Prop41ColorIndex
 90
       18
102
RTVSPost2010Prop41ColorRGB
 90
        0
102
RTVSPost2010PropOp41
 70
     1
102
RTVSPost2010Prop42
 90
       50
102
RTVSPost2010PropOp42
 70
     1
102
RTVSPost2010Prop43
 90
        3
102
RTVSPost2010PropOp43
 70
     1
102
RTVSPost2010Prop44ColorIndex
 90
        5
102
RTVSPost2010Prop44ColorRGB
 90
      255
102
RTVSPost2010PropOp44
 70
     1
102
RTVSPost2010Prop45
280
     0
102
RTVSPost2010PropOp45
 70
     1
102
RTVSPost2010Prop46
 90
       50
102
RTVSPost2010PropOp46
 70
     1
102
RTVSPost2010Prop47
 90
       50
102
RTVSPost2010PropOp47
 70
     1
102
RTVSPost2010Prop48
 90
       50
102
RTVSPost2010PropOp48
 70
     1
102
RTVSPost2010Prop49
280
     0
102
RTVSPost2010PropOp49
 70
     1
102
RTVSPost2010Prop50
 90
       50
102
RTVSPost2010PropOp50
 70
     1
102
RTVSPost2010Prop51ColorIndex
 90
      256
102
RTVSPost2010Prop51ColorRGB
 90
-16777216
102
RTVSPost2010PropOp51
 70
     0
102
RTVSPost2010Prop52
140
1.0
102
RTVSPost2010PropOp52
 70
     0
102
RTVSPost2010Prop53
 90
        2
102
RTVSPost2010PropOp53
 70
     1
102
RTVSPost2010Prop54
  1
strokes_ogs.tif
102
RTVSPost2010PropOp54
 70
     1
102
RTVSPost2010Prop55
280
     0
102
RTVSPost2010PropOp55
 70
     1
102
RTVSPost2010Prop56
140
1.0
102
RTVSPost2010PropOp56
 70
     1
102
RTVSPost2010Prop57
140
1.0
102
RTVSPost2010PropOp57
 70
     1
102
RTVSPropertyOp0
 70
     1
102
RTVSPropertyOp1
 70
     1
102
RTVSPropertyOp2
 70
     1
102
RTVSPropertyOp3
 70
     1
102
RTVSPropertyOp4
 70
     1
102
RTVSPropertyOp5
 70
     1
102
RTVSPropertyOp6
 70
     1
102
RTVSPropertyOp7
 70
     1
102
RTVSPropertyOp8
 70
     1
102
RTVSPropertyOp9
 70
     1
102
RTVSPropertyOp10
 70
     1
102
RTVSPropertyOp11
 70
     1
102
RTVSPropertyOp12
 70
     1
102
RTVSPropertyOp13
 70
     1
102
RTVSPropertyOp14
 70
     1
102
RTVSPropertyOp15
 70
     1
102
RTVSPropertyOp16
 70
     1
102
RTVSPropertyOp17
 70
     1
102
RTVSPropertyOp18
 70
     1
102
RTVSPropertyOp19
 70
     1
102
RTVSPropertyOp20
 70
     1
102
RTVSPropertyOp21
 70
     1
102
RTVSPropertyOp22
 70
     1
102
RTVSPropertyOp23
 70
     1
102
RTVSPropertyOp24
 70
     1
102
RTVSPropertyOp25
 70
     1
102
RTVSPropertyOp26
 70
     1
102
RTVSPropertyOp27
 70
     1
102
RTVSPropertyOp28
 70
     1
102
RTVSPropertyOp29
 70
     1
102
RTVSPropertyOp30
 70
     1
102
RTVSPropertyOp31
 70
     1
102
RTVSPropertyOp32
 70
     1
102
RTVSPropertyOp33
 70
     1
102
RTVSPropertyOp34
 70
     1
102
RTVSPropertyOp35
 70
     1
102
RTVSPropertyOp36
 70
     1
102
RTVSPropertyOp37
 70
     1
102
RTVSPropertyOp38
 70
     1
102
RTVSPropertyOp39
 70
     1
102
RTVSPropertyOp40
 70
     1
102
RTVSPropertyOp41
 70
     1
102
RTVSPropertyOp42
 70
     1
102
RTVSPropertyOp43
 70
     1
102
RTVSPropertyOp44
 70
     1
102
RTVSPropertyOp45
 70
     1
102
RTVSPropertyOp46
 70
     1
102
RTVSPropertyOp47
 70
     1
102
RTVSPropertyOp48
 70
     1
102
RTVSPropertyOp49
 70
     1
102
RTVSPropertyOp50
 70
     1
102
RTVSPropertyOp51
 70
     0
102
RTVSPropertyOp52
 70
     0
102
RTVSPropertyOp53
 70
     1
102
RTVSPropertyOp54
 70
     1
102
RTVSPropertyOp55
 70
     1
102
RTVSPropertyOp56
 70
     1
102
RTVSPropertyOp57
 70
     1
102
RTVSPropertyOp58
 70
     1
102
RTVSPropertyOp59
 70
     1
102
RTVSPropertyOp60
 70
     1
102
RTVSPropertyOp61
 70
     1
102
RTVSPropertyOp62
 70
     1
  0
XRECORD
  5
2CA
102
{ACAD_REACTORS
330
2C9
102
}
330
2C9
100
AcDbXrecord
280
     1
102
RTVSPost2010Prop28
280
     0
102
RTVSPost2010PropOp28
 70
     1
102
RTVSPost2010Prop29
280
     1
102
RTVSPost2010PropOp29
 70
     1
102
RTVSPost2010Prop30
280
     1
102
RTVSPost2010PropOp30
 70
     1
102
RTVSPost2010Prop31
280
     0
102
RTVSPost2010PropOp31
 70
     1
102
RTVSPost2010Prop32
280
     0
102
RTVSPost2010PropOp32
 70
     1
102
RTVSPost2010Prop33
280
     0
102
RTVSPost2010PropOp33
 70
     1
102
RTVSPost2010Prop34
280
     0
102
RTVSPost2010PropOp34
 70
     1
102
RTVSPost2010Prop35
280
     0
102
RTVSPost2010PropOp35
 70
     1
102
RTVSPost2010Prop36
280
     0
102
RTVSPost2010PropOp36
 70
     1
102
RTVSPost2010Prop37
 90
       50
102
RTVSPost2010PropOp37
 70
     1
102
RTVSPost2010Prop38
140
0.0
102
RTVSPost2010PropOp38
 70
     1
102
RTVSPost2010Prop39
140
1.0
102
RTVSPost2010PropOp39
 70
     1
102
RTVSPost2010Prop40
 90
        0
102
RTVSPost2010PropOp40
 70
     1
102
RTVSPost2010Prop41ColorIndex
 90
       18
102
RTVSPost2010Prop41ColorRGB
 90
        0
102
RTVSPost2010PropOp41
 70
     1
102
RTVSPost2010Prop42
 90
       50
102
RTVSPost2010PropOp42
 70
     1
102
RTVSPost2010Prop43
 90
        3
102
RTVSPost2010PropOp43
 70
     1
102
RTVSPost2010Prop44ColorIndex
 90
        5
102
RTVSPost2010Prop44ColorRGB
 90
      255
102
RTVSPost2010PropOp44
 70
     1
102
RTVSPost2010Prop45
280
     0
102
RTVSPost2010PropOp45
 70
     1
102
RTVSPost2010Prop46
 90
       50
102
RTVSPost2010PropOp46
 70
     1
102
RTVSPost2010Prop47
 90
       50
102
RTVSPost2010PropOp47
 70
     1
102
RTVSPost2010Prop48
 90
       50
102
RTVSPost2010PropOp48
 70
     1
102
RTVSPost2010Prop49
280
     0
102
RTVSPost2010PropOp49
 70
     1
102
RTVSPost2010Prop50
 90
       50
102
RTVSPost2010PropOp50
 70
     1
102
RTVSPost2010Prop51ColorIndex
 90
      256
102
RTVSPost2010Prop51ColorRGB
 90
-16777216
102
RTVSPost2010PropOp51
 70
     0
102
RTVSPost2010Prop52
140
1.0
102
RTVSPost2010PropOp52
 70
     0
102
RTVSPost2010Prop53
 90
        2
102
RTVSPost2010PropOp53
 70
     1
102
RTVSPost2010Prop54
  1
strokes_ogs.tif
102
RTVSPost2010PropOp54
 70
     1
102
RTVSPost2010Prop55
280
     0
102
RTVSPost2010PropOp55
 70
     1
102
RTVSPost2010Prop56
140
1.0
102
RTVSPost2010PropOp56
 70
     1
102
RTVSPost2010Prop57
140
1.0
102
RTVSPost2010PropOp57
 70
     1
102
RTVSPropertyOp0
 70
     1
102
RTVSPropertyOp1
 70
     1
102
RTVSPropertyOp2
 70
     1
102
RTVSPropertyOp3
 70
     1
102
RTVSPropertyOp4
 70
     1
102
RTVSPropertyOp5
 70
     1
102
RTVSPropertyOp6
 70
     1
102
RTVSPropertyOp7
 70
     1
102
RTVSPropertyOp8
 70
     1
102
RTVSPropertyOp9
 70
     1
102
RTVSPropertyOp10
 70
     1
102
RTVSPropertyOp11
 70
     1
102
RTVSPropertyOp12
 70
     1
102
RTVSPropertyOp13
 70
     1
102
RTVSPropertyOp14
 70
     1
102
RTVSPropertyOp15
 70
     1
102
RTVSPropertyOp16
 70
     1
102
RTVSPropertyOp17
 70
     1
102
RTVSPropertyOp18
 70
     1
102
RTVSPropertyOp19
 70
     1
102
RTVSPropertyOp20
 70
     1
102
RTVSPropertyOp21
 70
     1
102
RTVSPropertyOp22
 70
     1
102
RTVSPropertyOp23
 70
     1
102
RTVSPropertyOp24
 70
     1
102
RTVSPropertyOp25
 70
     1
102
RTVSPropertyOp26
 70
     1
102
RTVSPropertyOp27
 70
     1
102
RTVSPropertyOp28
 70
     1
102
RTVSPropertyOp29
 70
     1
102
RTVSPropertyOp30
 70
     1
102
RTVSPropertyOp31
 70
     1
102
RTVSPropertyOp32
 70
     1
102
RTVSPropertyOp33
 70
     1
102
RTVSPropertyOp34
 70
     1
102
RTVSPropertyOp35
 70
     1
102
RTVSPropertyOp36
 70
     1
102
RTVSPropertyOp37
 70
     1
102
RTVSPropertyOp38
 70
     1
102
RTVSPropertyOp39
 70
     1
102
RTVSPropertyOp40
 70
     1
102
RTVSPropertyOp41
 70
     1
102
RTVSPropertyOp42
 70
     1
102
RTVSPropertyOp43
 70
     1
102
RTVSPropertyOp44
 70
     1
102
RTVSPropertyOp45
 70
     1
102
RTVSPropertyOp46
 70
     1
102
RTVSPropertyOp47
 70
     1
102
RTVSPropertyOp48
 70
     1
102
RTVSPropertyOp49
 70
     1
102
RTVSPropertyOp50
 70
     1
102
RTVSPropertyOp51
 70
     0
102
RTVSPropertyOp52
 70
     0
102
RTVSPropertyOp53
 70
     1
102
RTVSPropertyOp54
 70
     1
102
RTVSPropertyOp55
 70
     1
102
RTVSPropertyOp56
 70
     1
102
RTVSPropertyOp57
 70
     1
102
RTVSPropertyOp58
 70
     1
102
RTVSPropertyOp59
 70
     1
102
RTVSPropertyOp60
 70
     1
102
RTVSPropertyOp61
 70
     1
102
RTVSPropertyOp62
 70
     1
  0
XRECORD
  5
2E6
102
{ACAD_REACTORS
330
2E5
102
}
330
2E5
100
AcDbXrecord
280
     1
102
RTVSPost2010Prop28
280
     0
102
RTVSPost2010PropOp28
 70
     0
102
RTVSPost2010Prop29
280
     1
102
RTVSPost2010PropOp29
 70
     0
102
RTVSPost2010Prop30
280
     1
102
RTVSPost2010PropOp30
 70
     0
102
RTVSPost2010Prop31
280
     0
102
RTVSPost2010PropOp31
 70
     0
102
RTVSPost2010Prop32
280
     0
102
RTVSPost2010PropOp32
 70
     0
102
RTVSPost2010Prop33
280
     0
102
RTVSPost2010PropOp33
 70
     0
102
RTVSPost2010Prop34
280
     0
102
RTVSPost2010PropOp34
 70
     0
102
RTVSPost2010Prop35
280
     0
102
RTVSPost2010PropOp35
 70
     0
102
RTVSPost2010Prop36
280
     0
102
RTVSPost2010PropOp36
 70
     0
102
RTVSPost2010Prop37
 90
       50
102
RTVSPost2010PropOp37
 70
     0
102
RTVSPost2010Prop38
140
0.0
102
RTVSPost2010PropOp38
 70
     0
102
RTVSPost2010Prop39
140
1.0
102
RTVSPost2010PropOp39
 70
     0
102
RTVSPost2010Prop40
 90
        0
102
RTVSPost2010PropOp40
 70
     0
102
RTVSPost2010Prop41ColorIndex
 90
       18
102
RTVSPost2010Prop41ColorRGB
 90
        0
102
RTVSPost2010PropOp41
 70
     0
102
RTVSPost2010Prop42
 90
       50
102
RTVSPost2010PropOp42
 70
     0
102
RTVSPost2010Prop43
 90
        3
102
RTVSPost2010PropOp43
 70
     0
102
RTVSPost2010Prop44ColorIndex
 90
        5
102
RTVSPost2010Prop44ColorRGB
 90
      255
102
RTVSPost2010PropOp44
 70
     0
102
RTVSPost2010Prop45
280
     0
102
RTVSPost2010PropOp45
 70
     0
102
RTVSPost2010Prop46
 90
       50
102
RTVSPost2010PropOp46
 70
     0
102
RTVSPost2010Prop47
 90
       50
102
RTVSPost2010PropOp47
 70
     0
102
RTVSPost2010Prop48
 90
       50
102
RTVSPost2010PropOp48
 70
     0
102
RTVSPost2010Prop49
280
     0
102
RTVSPost2010PropOp49
 70
     0
102
RTVSPost2010Prop50
 90
       50
102
RTVSPost2010PropOp50
 70
     0
102
RTVSPost2010Prop51ColorIndex
 90
      256
102
RTVSPost2010Prop51ColorRGB
 90
-16777216
102
RTVSPost2010PropOp51
 70
     0
102
RTVSPost2010Prop52
140
1.0
102
RTVSPost2010PropOp52
 70
     0
102
RTVSPost2010Prop53
 90
        2
102
RTVSPost2010PropOp53
 70
     0
102
RTVSPost2010Prop54
  1
strokes_ogs.tif
102
RTVSPost2010PropOp54
 70
     0
102
RTVSPost2010Prop55
280
     0
102
RTVSPost2010PropOp55
 70
     0
102
RTVSPost2010Prop56
140
1.0
102
RTVSPost2010PropOp56
 70
     0
102
RTVSPost2010Prop57
140
1.0
102
RTVSPost2010PropOp57
 70
     0
102
RTVSPropertyOp0
 70
     0
102
RTVSPropertyOp1
 70
     0
102
RTVSPropertyOp2
 70
     0
102
RTVSPropertyOp3
 70
     0
102
RTVSPropertyOp4
 70
     0
102
RTVSPropertyOp5
 70
     0
102
RTVSPropertyOp6
 70
     0
102
RTVSPropertyOp7
 70
     0
102
RTVSPropertyOp8
 70
     0
102
RTVSPropertyOp9
 70
     0
102
RTVSPropertyOp10
 70
     0
102
RTVSPropertyOp11
 70
     0
102
RTVSPropertyOp12
 70
     0
102
RTVSPropertyOp13
 70
     0
102
RTVSPropertyOp14
 70
     2
102
RTVSPropertyOp15
 70
     0
102
RTVSPropertyOp16
 70
     0
102
RTVSPropertyOp17
 70
     0
102
RTVSPropertyOp18
 70
     0
102
RTVSPropertyOp19
 70
     0
102
RTVSPropertyOp20
 70
     0
102
RTVSPropertyOp21
 70
     0
102
RTVSPropertyOp22
 70
     0
102
RTVSPropertyOp23
 70
     0
102
RTVSPropertyOp24
 70
     0
102
RTVSPropertyOp25
 70
     0
102
RTVSPropertyOp26
 70
     0
102
RTVSPropertyOp27
 70
     0
102
RTVSPropertyOp28
 70
     0
102
RTVSPropertyOp29
 70
     0
102
RTVSPropertyOp30
 70
     0
102
RTVSPropertyOp31
 70
     0
102
RTVSPropertyOp32
 70
     0
102
RTVSPropertyOp33
 70
     0
102
RTVSPropertyOp34
 70
     0
102
RTVSPropertyOp35
 70
     0
102
RTVSPropertyOp36
 70
     0
102
RTVSPropertyOp37
 70
     0
102
RTVSPropertyOp38
 70
     0
102
RTVSPropertyOp39
 70
     0
102
RTVSPropertyOp40
 70
     0
102
RTVSPropertyOp41
 70
     0
102
RTVSPropertyOp42
 70
     0
102
RTVSPropertyOp43
 70
     0
102
RTVSPropertyOp44
 70
     0
102
RTVSPropertyOp45
 70
     0
102
RTVSPropertyOp46
 70
     0
102
RTVSPropertyOp47
 70
     0
102
RTVSPropertyOp48
 70
     0
102
RTVSPropertyOp49
 70
     0
102
RTVSPropertyOp50
 70
     0
102
RTVSPropertyOp51
 70
     0
102
RTVSPropertyOp52
 70
     0
102
RTVSPropertyOp53
 70
     0
102
RTVSPropertyOp54
 70
     0
102
RTVSPropertyOp55
 70
     0
102
RTVSPropertyOp56
 70
     0
102
RTVSPropertyOp57
 70
     0
102
RTVSPropertyOp58
 70
     0
102
RTVSPropertyOp59
 70
     0
102
RTVSPropertyOp60
 70
     0
102
RTVSPropertyOp61
 70
     0
102
RTVSPropertyOp62
 70
     0
  0
XRECORD
  5
2D6
102
{ACAD_REACTORS
330
2D5
102
}
330
2D5
100
AcDbXrecord
280
     1
102
RTVSPost2010Prop28
280
     0
102
RTVSPost2010PropOp28
 70
     1
102
RTVSPost2010Prop29
280
     1
102
RTVSPost2010PropOp29
 70
     1
102
RTVSPost2010Prop30
280
     1
102
RTVSPost2010PropOp30
 70
     1
102
RTVSPost2010Prop31
280
     0
102
RTVSPost2010PropOp31
 70
     1
102
RTVSPost2010Prop32
280
     0
102
RTVSPost2010PropOp32
 70
     1
102
RTVSPost2010Prop33
280
     0
102
RTVSPost2010PropOp33
 70
     1
102
RTVSPost2010Prop34
280
     0
102
RTVSPost2010PropOp34
 70
     1
102
RTVSPost2010Prop35
280
     0
102
RTVSPost2010PropOp35
 70
     1
102
RTVSPost2010Prop36
280
     0
102
RTVSPost2010PropOp36
 70
     1
102
RTVSPost2010Prop37
 90
       50
102
RTVSPost2010PropOp37
 70
     1
102
RTVSPost2010Prop38
140
0.0
102
RTVSPost2010PropOp38
 70
     1
102
RTVSPost2010Prop39
140
1.0
102
RTVSPost2010PropOp39
 70
     1
102
RTVSPost2010Prop40
 90
        0
102
RTVSPost2010PropOp40
 70
     1
102
RTVSPost2010Prop41ColorIndex
 90
       18
102
RTVSPost2010Prop41ColorRGB
 90
        0
102
RTVSPost2010PropOp41
 70
     1
102
RTVSPost2010Prop42
 90
       50
102
RTVSPost2010PropOp42
 70
     1
102
RTVSPost2010Prop43
 90
        3
102
RTVSPost2010PropOp43
 70
     1
102
RTVSPost2010Prop44ColorIndex
 90
        5
102
RTVSPost2010Prop44ColorRGB
 90
      255
102
RTVSPost2010PropOp44
 70
     1
102
RTVSPost2010Prop45
280
     0
102
RTVSPost2010PropOp45
 70
     1
102
RTVSPost2010Prop46
 90
       50
102
RTVSPost2010PropOp46
 70
     1
102
RTVSPost2010Prop47
 90
       50
102
RTVSPost2010PropOp47
 70
     1
102
RTVSPost2010Prop48
 90
       50
102
RTVSPost2010PropOp48
 70
     1
102
RTVSPost2010Prop49
280
     0
102
RTVSPost2010PropOp49
 70
     1
102
RTVSPost2010Prop50
 90
       50
102
RTVSPost2010PropOp50
 70
     1
102
RTVSPost2010Prop51ColorIndex
 90
      256
102
RTVSPost2010Prop51ColorRGB
 90
-16777216
102
RTVSPost2010PropOp51
 70
     0
102
RTVSPost2010Prop52
140
1.0
102
RTVSPost2010PropOp52
 70
     0
102
RTVSPost2010Prop53
 90
        2
102
RTVSPost2010PropOp53
 70
     1
102
RTVSPost2010Prop54
  1
strokes_ogs.tif
102
RTVSPost2010PropOp54
 70
     1
102
RTVSPost2010Prop55
280
     0
102
RTVSPost2010PropOp55
 70
     1
102
RTVSPost2010Prop56
140
1.0
102
RTVSPost2010PropOp56
 70
     1
102
RTVSPost2010Prop57
140
1.0
102
RTVSPost2010PropOp57
 70
     1
102
RTVSPropertyOp0
 70
     1
102
RTVSPropertyOp1
 70
     1
102
RTVSPropertyOp2
 70
     1
102
RTVSPropertyOp3
 70
     1
102
RTVSPropertyOp4
 70
     1
102
RTVSPropertyOp5
 70
     1
102
RTVSPropertyOp6
 70
     1
102
RTVSPropertyOp7
 70
     1
102
RTVSPropertyOp8
 70
     1
102
RTVSPropertyOp9
 70
     1
102
RTVSPropertyOp10
 70
     1
102
RTVSPropertyOp11
 70
     1
102
RTVSPropertyOp12
 70
     1
102
RTVSPropertyOp13
 70
     1
102
RTVSPropertyOp14
 70
     1
102
RTVSPropertyOp15
 70
     1
102
RTVSPropertyOp16
 70
     1
102
RTVSPropertyOp17
 70
     1
102
RTVSPropertyOp18
 70
     1
102
RTVSPropertyOp19
 70
     1
102
RTVSPropertyOp20
 70
     1
102
RTVSPropertyOp21
 70
     1
102
RTVSPropertyOp22
 70
     1
102
RTVSPropertyOp23
 70
     1
102
RTVSPropertyOp24
 70
     1
102
RTVSPropertyOp25
 70
     1
102
RTVSPropertyOp26
 70
     1
102
RTVSPropertyOp27
 70
     1
102
RTVSPropertyOp28
 70
     1
102
RTVSPropertyOp29
 70
     1
102
RTVSPropertyOp30
 70
     1
102
RTVSPropertyOp31
 70
     1
102
RTVSPropertyOp32
 70
     1
102
RTVSPropertyOp33
 70
     1
102
RTVSPropertyOp34
 70
     1
102
RTVSPropertyOp35
 70
     1
102
RTVSPropertyOp36
 70
     1
102
RTVSPropertyOp37
 70
     1
102
RTVSPropertyOp38
 70
     1
102
RTVSPropertyOp39
 70
     1
102
RTVSPropertyOp40
 70
     1
102
RTVSPropertyOp41
 70
     1
102
RTVSPropertyOp42
 70
     1
102
RTVSPropertyOp43
 70
     1
102
RTVSPropertyOp44
 70
     1
102
RTVSPropertyOp45
 70
     1
102
RTVSPropertyOp46
 70
     1
102
RTVSPropertyOp47
 70
     1
102
RTVSPropertyOp48
 70
     1
102
RTVSPropertyOp49
 70
     1
102
RTVSPropertyOp50
 70
     1
102
RTVSPropertyOp51
 70
     0
102
RTVSPropertyOp52
 70
     0
102
RTVSPropertyOp53
 70
     1
102
RTVSPropertyOp54
 70
     1
102
RTVSPropertyOp55
 70
     1
102
RTVSPropertyOp56
 70
     1
102
RTVSPropertyOp57
 70
     1
102
RTVSPropertyOp58
 70
     1
102
RTVSPropertyOp59
 70
     1
102
RTVSPropertyOp60
 70
     1
102
RTVSPropertyOp61
 70
     1
102
RTVSPropertyOp62
 70
     1
  0
XRECORD
  5
2E8
102
{ACAD_REACTORS
330
2E7
102
}
330
2E7
100
AcDbXrecord
280
     1
102
RTVSPost2010Prop28
280
     0
102
RTVSPost2010PropOp28
 70
     0
102
RTVSPost2010Prop29
280
     1
102
RTVSPost2010PropOp29
 70
     0
102
RTVSPost2010Prop30
280
     1
102
RTVSPost2010PropOp30
 70
     0
102
RTVSPost2010Prop31
280
     0
102
RTVSPost2010PropOp31
 70
     0
102
RTVSPost2010Prop32
280
     0
102
RTVSPost2010PropOp32
 70
     0
102
RTVSPost2010Prop33
280
     0
102
RTVSPost2010PropOp33
 70
     0
102
RTVSPost2010Prop34
280
     0
102
RTVSPost2010PropOp34
 70
     0
102
RTVSPost2010Prop35
280
     0
102
RTVSPost2010PropOp35
 70
     0
102
RTVSPost2010Prop36
280
     0
102
RTVSPost2010PropOp36
 70
     0
102
RTVSPost2010Prop37
 90
       50
102
RTVSPost2010PropOp37
 70
     0
102
RTVSPost2010Prop38
140
0.0
102
RTVSPost2010PropOp38
 70
     0
102
RTVSPost2010Prop39
140
1.0
102
RTVSPost2010PropOp39
 70
     0
102
RTVSPost2010Prop40
 90
        0
102
RTVSPost2010PropOp40
 70
     0
102
RTVSPost2010Prop41ColorIndex
 90
       18
102
RTVSPost2010Prop41ColorRGB
 90
        0
102
RTVSPost2010PropOp41
 70
     0
102
RTVSPost2010Prop42
 90
       50
102
RTVSPost2010PropOp42
 70
     0
102
RTVSPost2010Prop43
 90
        3
102
RTVSPost2010PropOp43
 70
     0
102
RTVSPost2010Prop44ColorIndex
 90
        5
102
RTVSPost2010Prop44ColorRGB
 90
      255
102
RTVSPost2010PropOp44
 70
     0
102
RTVSPost2010Prop45
280
     0
102
RTVSPost2010PropOp45
 70
     0
102
RTVSPost2010Prop46
 90
       50
102
RTVSPost2010PropOp46
 70
     0
102
RTVSPost2010Prop47
 90
       50
102
RTVSPost2010PropOp47
 70
     0
102
RTVSPost2010Prop48
 90
       50
102
RTVSPost2010PropOp48
 70
     0
102
RTVSPost2010Prop49
280
     0
102
RTVSPost2010PropOp49
 70
     0
102
RTVSPost2010Prop50
 90
       50
102
RTVSPost2010PropOp50
 70
     0
102
RTVSPost2010Prop51ColorIndex
 90
      256
102
RTVSPost2010Prop51ColorRGB
 90
-16777216
102
RTVSPost2010PropOp51
 70
     0
102
RTVSPost2010Prop52
140
1.0
102
RTVSPost2010PropOp52
 70
     0
102
RTVSPost2010Prop53
 90
        2
102
RTVSPost2010PropOp53
 70
     0
102
RTVSPost2010Prop54
  1
strokes_ogs.tif
102
RTVSPost2010PropOp54
 70
     0
102
RTVSPost2010Prop55
280
     0
102
RTVSPost2010PropOp55
 70
     0
102
RTVSPost2010Prop56
140
1.0
102
RTVSPost2010PropOp56
 70
     0
102
RTVSPost2010Prop57
140
1.0
102
RTVSPost2010PropOp57
 70
     0
102
RTVSPropertyOp0
 70
     0
102
RTVSPropertyOp1
 70
     0
102
RTVSPropertyOp2
 70
     0
102
RTVSPropertyOp3
 70
     0
102
RTVSPropertyOp4
 70
     0
102
RTVSPropertyOp5
 70
     0
102
RTVSPropertyOp6
 70
     0
102
RTVSPropertyOp7
 70
     0
102
RTVSPropertyOp8
 70
     0
102
RTVSPropertyOp9
 70
     0
102
RTVSPropertyOp10
 70
     0
102
RTVSPropertyOp11
 70
     0
102
RTVSPropertyOp12
 70
     0
102
RTVSPropertyOp13
 70
     0
102
RTVSPropertyOp14
 70
     2
102
RTVSPropertyOp15
 70
     0
102
RTVSPropertyOp16
 70
     0
102
RTVSPropertyOp17
 70
     0
102
RTVSPropertyOp18
 70
     0
102
RTVSPropertyOp19
 70
     0
102
RTVSPropertyOp20
 70
     0
102
RTVSPropertyOp21
 70
     0
102
RTVSPropertyOp22
 70
     0
102
RTVSPropertyOp23
 70
     0
102
RTVSPropertyOp24
 70
     0
102
RTVSPropertyOp25
 70
     0
102
RTVSPropertyOp26
 70
     0
102
RTVSPropertyOp27
 70
     0
102
RTVSPropertyOp28
 70
     0
102
RTVSPropertyOp29
 70
     0
102
RTVSPropertyOp30
 70
     0
102
RTVSPropertyOp31
 70
     0
102
RTVSPropertyOp32
 70
     0
102
RTVSPropertyOp33
 70
     0
102
RTVSPropertyOp34
 70
     0
102
RTVSPropertyOp35
 70
     0
102
RTVSPropertyOp36
 70
     0
102
RTVSPropertyOp37
 70
     0
102
RTVSPropertyOp38
 70
     0
102
RTVSPropertyOp39
 70
     0
102
RTVSPropertyOp40
 70
     0
102
RTVSPropertyOp41
 70
     0
102
RTVSPropertyOp42
 70
     0
102
RTVSPropertyOp43
 70
     0
102
RTVSPropertyOp44
 70
     0
102
RTVSPropertyOp45
 70
     0
102
RTVSPropertyOp46
 70
     0
102
RTVSPropertyOp47
 70
     0
102
RTVSPropertyOp48
 70
     0
102
RTVSPropertyOp49
 70
     0
102
RTVSPropertyOp50
 70
     0
102
RTVSPropertyOp51
 70
     0
102
RTVSPropertyOp52
 70
     0
102
RTVSPropertyOp53
 70
     0
102
RTVSPropertyOp54
 70
     0
102
RTVSPropertyOp55
 70
     0
102
RTVSPropertyOp56
 70
     0
102
RTVSPropertyOp57
 70
     0
102
RTVSPropertyOp58
 70
     0
102
RTVSPropertyOp59
 70
     0
102
RTVSPropertyOp60
 70
     0
102
RTVSPropertyOp61
 70
     0
102
RTVSPropertyOp62
 70
     0
  0
XRECORD
  5
2CE
102
{ACAD_REACTORS
330
2CD
102
}
330
2CD
100
AcDbXrecord
280
     1
102
RTVSPost2010Prop28
280
     0
102
RTVSPost2010PropOp28
 70
     1
102
RTVSPost2010Prop29
280
     1
102
RTVSPost2010PropOp29
 70
     1
102
RTVSPost2010Prop30
280
     1
102
RTVSPost2010PropOp30
 70
     1
102
RTVSPost2010Prop31
280
     0
102
RTVSPost2010PropOp31
 70
     1
102
RTVSPost2010Prop32
280
     0
102
RTVSPost2010PropOp32
 70
     1
102
RTVSPost2010Prop33
280
     0
102
RTVSPost2010PropOp33
 70
     1
102
RTVSPost2010Prop34
280
     0
102
RTVSPost2010PropOp34
 70
     1
102
RTVSPost2010Prop35
280
     0
102
RTVSPost2010PropOp35
 70
     1
102
RTVSPost2010Prop36
280
     0
102
RTVSPost2010PropOp36
 70
     1
102
RTVSPost2010Prop37
 90
       50
102
RTVSPost2010PropOp37
 70
     1
102
RTVSPost2010Prop38
140
0.0
102
RTVSPost2010PropOp38
 70
     1
102
RTVSPost2010Prop39
140
1.0
102
RTVSPost2010PropOp39
 70
     1
102
RTVSPost2010Prop40
 90
        0
102
RTVSPost2010PropOp40
 70
     1
102
RTVSPost2010Prop41ColorIndex
 90
       18
102
RTVSPost2010Prop41ColorRGB
 90
        0
102
RTVSPost2010PropOp41
 70
     1
102
RTVSPost2010Prop42
 90
       50
102
RTVSPost2010PropOp42
 70
     1
102
RTVSPost2010Prop43
 90
        3
102
RTVSPost2010PropOp43
 70
     1
102
RTVSPost2010Prop44ColorIndex
 90
        5
102
RTVSPost2010Prop44ColorRGB
 90
      255
102
RTVSPost2010PropOp44
 70
     1
102
RTVSPost2010Prop45
280
     0
102
RTVSPost2010PropOp45
 70
     1
102
RTVSPost2010Prop46
 90
       50
102
RTVSPost2010PropOp46
 70
     1
102
RTVSPost2010Prop47
 90
       50
102
RTVSPost2010PropOp47
 70
     1
102
RTVSPost2010Prop48
 90
       50
102
RTVSPost2010PropOp48
 70
     1
102
RTVSPost2010Prop49
280
     0
102
RTVSPost2010PropOp49
 70
     1
102
RTVSPost2010Prop50
 90
       50
102
RTVSPost2010PropOp50
 70
     1
102
RTVSPost2010Prop51ColorIndex
 90
      256
102
RTVSPost2010Prop51ColorRGB
 90
-16777216
102
RTVSPost2010PropOp51
 70
     0
102
RTVSPost2010Prop52
140
1.0
102
RTVSPost2010PropOp52
 70
     0
102
RTVSPost2010Prop53
 90
        2
102
RTVSPost2010PropOp53
 70
     1
102
RTVSPost2010Prop54
  1
strokes_ogs.tif
102
RTVSPost2010PropOp54
 70
     1
102
RTVSPost2010Prop55
280
     0
102
RTVSPost2010PropOp55
 70
     1
102
RTVSPost2010Prop56
140
1.0
102
RTVSPost2010PropOp56
 70
     1
102
RTVSPost2010Prop57
140
1.0
102
RTVSPost2010PropOp57
 70
     1
102
RTVSPropertyOp0
 70
     1
102
RTVSPropertyOp1
 70
     1
102
RTVSPropertyOp2
 70
     1
102
RTVSPropertyOp3
 70
     1
102
RTVSPropertyOp4
 70
     1
102
RTVSPropertyOp5
 70
     1
102
RTVSPropertyOp6
 70
     1
102
RTVSPropertyOp7
 70
     1
102
RTVSPropertyOp8
 70
     1
102
RTVSPropertyOp9
 70
     1
102
RTVSPropertyOp10
 70
     1
102
RTVSPropertyOp11
 70
     1
102
RTVSPropertyOp12
 70
     1
102
RTVSPropertyOp13
 70
     1
102
RTVSPropertyOp14
 70
     1
102
RTVSPropertyOp15
 70
     1
102
RTVSPropertyOp16
 70
     1
102
RTVSPropertyOp17
 70
     1
102
RTVSPropertyOp18
 70
     1
102
RTVSPropertyOp19
 70
     1
102
RTVSPropertyOp20
 70
     1
102
RTVSPropertyOp21
 70
     1
102
RTVSPropertyOp22
 70
     1
102
RTVSPropertyOp23
 70
     1
102
RTVSPropertyOp24
 70
     1
102
RTVSPropertyOp25
 70
     1
102
RTVSPropertyOp26
 70
     1
102
RTVSPropertyOp27
 70
     1
102
RTVSPropertyOp28
 70
     1
102
RTVSPropertyOp29
 70
     1
102
RTVSPropertyOp30
 70
     1
102
RTVSPropertyOp31
 70
     1
102
RTVSPropertyOp32
 70
     1
102
RTVSPropertyOp33
 70
     1
102
RTVSPropertyOp34
 70
     1
102
RTVSPropertyOp35
 70
     1
102
RTVSPropertyOp36
 70
     1
102
RTVSPropertyOp37
 70
     1
102
RTVSPropertyOp38
 70
     1
102
RTVSPropertyOp39
 70
     1
102
RTVSPropertyOp40
 70
     1
102
RTVSPropertyOp41
 70
     1
102
RTVSPropertyOp42
 70
     1
102
RTVSPropertyOp43
 70
     1
102
RTVSPropertyOp44
 70
     1
102
RTVSPropertyOp45
 70
     1
102
RTVSPropertyOp46
 70
     1
102
RTVSPropertyOp47
 70
     1
102
RTVSPropertyOp48
 70
     1
102
RTVSPropertyOp49
 70
     1
102
RTVSPropertyOp50
 70
     1
102
RTVSPropertyOp51
 70
     0
102
RTVSPropertyOp52
 70
     0
102
RTVSPropertyOp53
 70
     1
102
RTVSPropertyOp54
 70
     1
102
RTVSPropertyOp55
 70
     1
102
RTVSPropertyOp56
 70
     1
102
RTVSPropertyOp57
 70
     1
102
RTVSPropertyOp58
 70
     1
102
RTVSPropertyOp59
 70
     1
102
RTVSPropertyOp60
 70
     1
102
RTVSPropertyOp61
 70
     1
102
RTVSPropertyOp62
 70
     1
  0
XRECORD
  5
2E4
102
{ACAD_REACTORS
330
2E3
102
}
330
2E3
100
AcDbXrecord
280
     1
102
RTVSPost2010Prop28
280
     0
102
RTVSPost2010PropOp28
 70
     1
102
RTVSPost2010Prop29
280
     1
102
RTVSPost2010PropOp29
 70
     1
102
RTVSPost2010Prop30
280
     1
102
RTVSPost2010PropOp30
 70
     1
102
RTVSPost2010Prop31
280
     0
102
RTVSPost2010PropOp31
 70
     1
102
RTVSPost2010Prop32
280
     0
102
RTVSPost2010PropOp32
 70
     1
102
RTVSPost2010Prop33
280
     0
102
RTVSPost2010PropOp33
 70
     1
102
RTVSPost2010Prop34
280
     0
102
RTVSPost2010PropOp34
 70
     1
102
RTVSPost2010Prop35
280
     0
102
RTVSPost2010PropOp35
 70
     1
102
RTVSPost2010Prop36
280
     0
102
RTVSPost2010PropOp36
 70
     1
102
RTVSPost2010Prop37
 90
       50
102
RTVSPost2010PropOp37
 70
     1
102
RTVSPost2010Prop38
140
0.0
102
RTVSPost2010PropOp38
 70
     1
102
RTVSPost2010Prop39
140
1.0
102
RTVSPost2010PropOp39
 70
     1
102
RTVSPost2010Prop40
 90
        0
102
RTVSPost2010PropOp40
 70
     1
102
RTVSPost2010Prop41ColorIndex
 90
       18
102
RTVSPost2010Prop41ColorRGB
 90
        0
102
RTVSPost2010PropOp41
 70
     1
102
RTVSPost2010Prop42
 90
       50
102
RTVSPost2010PropOp42
 70
     1
102
RTVSPost2010Prop43
 90
        3
102
RTVSPost2010PropOp43
 70
     1
102
RTVSPost2010Prop44ColorIndex
 90
        5
102
RTVSPost2010Prop44ColorRGB
 90
      255
102
RTVSPost2010PropOp44
 70
     1
102
RTVSPost2010Prop45
280
     0
102
RTVSPost2010PropOp45
 70
     1
102
RTVSPost2010Prop46
 90
       50
102
RTVSPost2010PropOp46
 70
     1
102
RTVSPost2010Prop47
 90
       50
102
RTVSPost2010PropOp47
 70
     1
102
RTVSPost2010Prop48
 90
       50
102
RTVSPost2010PropOp48
 70
     1
102
RTVSPost2010Prop49
280
     0
102
RTVSPost2010PropOp49
 70
     1
102
RTVSPost2010Prop50
 90
       50
102
RTVSPost2010PropOp50
 70
     1
102
RTVSPost2010Prop51ColorIndex
 90
      256
102
RTVSPost2010Prop51ColorRGB
 90
-16777216
102
RTVSPost2010PropOp51
 70
     0
102
RTVSPost2010Prop52
140
1.0
102
RTVSPost2010PropOp52
 70
     0
102
RTVSPost2010Prop53
 90
        2
102
RTVSPost2010PropOp53
 70
     1
102
RTVSPost2010Prop54
  1
strokes_ogs.tif
102
RTVSPost2010PropOp54
 70
     1
102
RTVSPost2010Prop55
280
     0
102
RTVSPost2010PropOp55
 70
     1
102
RTVSPost2010Prop56
140
1.0
102
RTVSPost2010PropOp56
 70
     1
102
RTVSPost2010Prop57
140
1.0
102
RTVSPost2010PropOp57
 70
     1
102
RTVSPropertyOp0
 70
     1
102
RTVSPropertyOp1
 70
     1
102
RTVSPropertyOp2
 70
     1
102
RTVSPropertyOp3
 70
     1
102
RTVSPropertyOp4
 70
     1
102
RTVSPropertyOp5
 70
     1
102
RTVSPropertyOp6
 70
     1
102
RTVSPropertyOp7
 70
     1
102
RTVSPropertyOp8
 70
     1
102
RTVSPropertyOp9
 70
     1
102
RTVSPropertyOp10
 70
     1
102
RTVSPropertyOp11
 70
     1
102
RTVSPropertyOp12
 70
     1
102
RTVSPropertyOp13
 70
     1
102
RTVSPropertyOp14
 70
     1
102
RTVSPropertyOp15
 70
     1
102
RTVSPropertyOp16
 70
     1
102
RTVSPropertyOp17
 70
     1
102
RTVSPropertyOp18
 70
     1
102
RTVSPropertyOp19
 70
     1
102
RTVSPropertyOp20
 70
     1
102
RTVSPropertyOp21
 70
     1
102
RTVSPropertyOp22
 70
     1
102
RTVSPropertyOp23
 70
     1
102
RTVSPropertyOp24
 70
     1
102
RTVSPropertyOp25
 70
     1
102
RTVSPropertyOp26
 70
     1
102
RTVSPropertyOp27
 70
     1
102
RTVSPropertyOp28
 70
     1
102
RTVSPropertyOp29
 70
     1
102
RTVSPropertyOp30
 70
     1
102
RTVSPropertyOp31
 70
     1
102
RTVSPropertyOp32
 70
     1
102
RTVSPropertyOp33
 70
     1
102
RTVSPropertyOp34
 70
     1
102
RTVSPropertyOp35
 70
     1
102
RTVSPropertyOp36
 70
     1
102
RTVSPropertyOp37
 70
     1
102
RTVSPropertyOp38
 70
     1
102
RTVSPropertyOp39
 70
     1
102
RTVSPropertyOp40
 70
     1
102
RTVSPropertyOp41
 70
     1
102
RTVSPropertyOp42
 70
     1
102
RTVSPropertyOp43
 70
     1
102
RTVSPropertyOp44
 70
     1
102
RTVSPropertyOp45
 70
     1
102
RTVSPropertyOp46
 70
     1
102
RTVSPropertyOp47
 70
     1
102
RTVSPropertyOp48
 70
     1
102
RTVSPropertyOp49
 70
     1
102
RTVSPropertyOp50
 70
     1
102
RTVSPropertyOp51
 70
     0
102
RTVSPropertyOp52
 70
     0
102
RTVSPropertyOp53
 70
     1
102
RTVSPropertyOp54
 70
     1
102
RTVSPropertyOp55
 70
     1
102
RTVSPropertyOp56
 70
     1
102
RTVSPropertyOp57
 70
     1
102
RTVSPropertyOp58
 70
     1
102
RTVSPropertyOp59
 70
     1
102
RTVSPropertyOp60
 70
     1
102
RTVSPropertyOp61
 70
     1
102
RTVSPropertyOp62
 70
     1
  0
XRECORD
  5
2E2
102
{ACAD_REACTORS
330
2E1
102
}
330
2E1
100
AcDbXrecord
280
     1
102
RTVSPost2010Prop28
280
     0
102
RTVSPost2010PropOp28
 70
     1
102
RTVSPost2010Prop29
280
     1
102
RTVSPost2010PropOp29
 70
     1
102
RTVSPost2010Prop30
280
     1
102
RTVSPost2010PropOp30
 70
     1
102
RTVSPost2010Prop31
280
     0
102
RTVSPost2010PropOp31
 70
     1
102
RTVSPost2010Prop32
280
     0
102
RTVSPost2010PropOp32
 70
     1
102
RTVSPost2010Prop33
280
     0
102
RTVSPost2010PropOp33
 70
     1
102
RTVSPost2010Prop34
280
     0
102
RTVSPost2010PropOp34
 70
     1
102
RTVSPost2010Prop35
280
     0
102
RTVSPost2010PropOp35
 70
     1
102
RTVSPost2010Prop36
280
     0
102
RTVSPost2010PropOp36
 70
     1
102
RTVSPost2010Prop37
 90
       50
102
RTVSPost2010PropOp37
 70
     1
102
RTVSPost2010Prop38
140
0.0
102
RTVSPost2010PropOp38
 70
     1
102
RTVSPost2010Prop39
140
1.0
102
RTVSPost2010PropOp39
 70
     1
102
RTVSPost2010Prop40
 90
        0
102
RTVSPost2010PropOp40
 70
     1
102
RTVSPost2010Prop41ColorIndex
 90
       18
102
RTVSPost2010Prop41ColorRGB
 90
        0
102
RTVSPost2010PropOp41
 70
     1
102
RTVSPost2010Prop42
 90
       50
102
RTVSPost2010PropOp42
 70
     1
102
RTVSPost2010Prop43
 90
        3
102
RTVSPost2010PropOp43
 70
     1
102
RTVSPost2010Prop44ColorIndex
 90
        5
102
RTVSPost2010Prop44ColorRGB
 90
      255
102
RTVSPost2010PropOp44
 70
     1
102
RTVSPost2010Prop45
280
     0
102
RTVSPost2010PropOp45
 70
     1
102
RTVSPost2010Prop46
 90
       50
102
RTVSPost2010PropOp46
 70
     1
102
RTVSPost2010Prop47
 90
       50
102
RTVSPost2010PropOp47
 70
     1
102
RTVSPost2010Prop48
 90
       50
102
RTVSPost2010PropOp48
 70
     1
102
RTVSPost2010Prop49
280
     0
102
RTVSPost2010PropOp49
 70
     1
102
RTVSPost2010Prop50
 90
       50
102
RTVSPost2010PropOp50
 70
     1
102
RTVSPost2010Prop51ColorIndex
 90
      256
102
RTVSPost2010Prop51ColorRGB
 90
-16777216
102
RTVSPost2010PropOp51
 70
     0
102
RTVSPost2010Prop52
140
1.0
102
RTVSPost2010PropOp52
 70
     0
102
RTVSPost2010Prop53
 90
        2
102
RTVSPost2010PropOp53
 70
     1
102
RTVSPost2010Prop54
  1
strokes_ogs.tif
102
RTVSPost2010PropOp54
 70
     1
102
RTVSPost2010Prop55
280
     0
102
RTVSPost2010PropOp55
 70
     1
102
RTVSPost2010Prop56
140
1.0
102
RTVSPost2010PropOp56
 70
     1
102
RTVSPost2010Prop57
140
1.0
102
RTVSPost2010PropOp57
 70
     1
102
RTVSPropertyOp0
 70
     1
102
RTVSPropertyOp1
 70
     1
102
RTVSPropertyOp2
 70
     1
102
RTVSPropertyOp3
 70
     1
102
RTVSPropertyOp4
 70
     1
102
RTVSPropertyOp5
 70
     1
102
RTVSPropertyOp6
 70
     1
102
RTVSPropertyOp7
 70
     1
102
RTVSPropertyOp8
 70
     1
102
RTVSPropertyOp9
 70
     1
102
RTVSPropertyOp10
 70
     1
102
RTVSPropertyOp11
 70
     1
102
RTVSPropertyOp12
 70
     1
102
RTVSPropertyOp13
 70
     1
102
RTVSPropertyOp14
 70
     1
102
RTVSPropertyOp15
 70
     1
102
RTVSPropertyOp16
 70
     1
102
RTVSPropertyOp17
 70
     1
102
RTVSPropertyOp18
 70
     1
102
RTVSPropertyOp19
 70
     1
102
RTVSPropertyOp20
 70
     1
102
RTVSPropertyOp21
 70
     1
102
RTVSPropertyOp22
 70
     1
102
RTVSPropertyOp23
 70
     1
102
RTVSPropertyOp24
 70
     1
102
RTVSPropertyOp25
 70
     1
102
RTVSPropertyOp26
 70
     1
102
RTVSPropertyOp27
 70
     1
102
RTVSPropertyOp28
 70
     1
102
RTVSPropertyOp29
 70
     1
102
RTVSPropertyOp30
 70
     1
102
RTVSPropertyOp31
 70
     1
102
RTVSPropertyOp32
 70
     1
102
RTVSPropertyOp33
 70
     1
102
RTVSPropertyOp34
 70
     1
102
RTVSPropertyOp35
 70
     1
102
RTVSPropertyOp36
 70
     1
102
RTVSPropertyOp37
 70
     1
102
RTVSPropertyOp38
 70
     1
102
RTVSPropertyOp39
 70
     1
102
RTVSPropertyOp40
 70
     1
102
RTVSPropertyOp41
 70
     1
102
RTVSPropertyOp42
 70
     1
102
RTVSPropertyOp43
 70
     1
102
RTVSPropertyOp44
 70
     1
102
RTVSPropertyOp45
 70
     1
102
RTVSPropertyOp46
 70
     1
102
RTVSPropertyOp47
 70
     1
102
RTVSPropertyOp48
 70
     1
102
RTVSPropertyOp49
 70
     1
102
RTVSPropertyOp50
 70
     1
102
RTVSPropertyOp51
 70
     0
102
RTVSPropertyOp52
 70
     0
102
RTVSPropertyOp53
 70
     1
102
RTVSPropertyOp54
 70
     1
102
RTVSPropertyOp55
 70
     1
102
RTVSPropertyOp56
 70
     1
102
RTVSPropertyOp57
 70
     1
102
RTVSPropertyOp58
 70
     1
102
RTVSPropertyOp59
 70
     1
102
RTVSPropertyOp60
 70
     1
102
RTVSPropertyOp61
 70
     1
102
RTVSPropertyOp62
 70
     1
  0
XRECORD
  5
2DC
102
{ACAD_REACTORS
330
2DB
102
}
330
2DB
100
AcDbXrecord
280
     1
102
RTVSPost2010Prop28
280
     0
102
RTVSPost2010PropOp28
 70
     1
102
RTVSPost2010Prop29
280
     1
102
RTVSPost2010PropOp29
 70
     1
102
RTVSPost2010Prop30
280
     1
102
RTVSPost2010PropOp30
 70
     1
102
RTVSPost2010Prop31
280
     0
102
RTVSPost2010PropOp31
 70
     1
102
RTVSPost2010Prop32
280
     0
102
RTVSPost2010PropOp32
 70
     1
102
RTVSPost2010Prop33
280
     0
102
RTVSPost2010PropOp33
 70
     1
102
RTVSPost2010Prop34
280
     0
102
RTVSPost2010PropOp34
 70
     1
102
RTVSPost2010Prop35
280
     0
102
RTVSPost2010PropOp35
 70
     1
102
RTVSPost2010Prop36
280
     0
102
RTVSPost2010PropOp36
 70
     1
102
RTVSPost2010Prop37
 90
       50
102
RTVSPost2010PropOp37
 70
     1
102
RTVSPost2010Prop38
140
0.0
102
RTVSPost2010PropOp38
 70
     1
102
RTVSPost2010Prop39
140
1.0
102
RTVSPost2010PropOp39
 70
     1
102
RTVSPost2010Prop40
 90
        0
102
RTVSPost2010PropOp40
 70
     1
102
RTVSPost2010Prop41ColorIndex
 90
       18
102
RTVSPost2010Prop41ColorRGB
 90
        0
102
RTVSPost2010PropOp41
 70
     1
102
RTVSPost2010Prop42
 90
       50
102
RTVSPost2010PropOp42
 70
     1
102
RTVSPost2010Prop43
 90
        3
102
RTVSPost2010PropOp43
 70
     1
102
RTVSPost2010Prop44ColorIndex
 90
        5
102
RTVSPost2010Prop44ColorRGB
 90
      255
102
RTVSPost2010PropOp44
 70
     1
102
RTVSPost2010Prop45
280
     0
102
RTVSPost2010PropOp45
 70
     1
102
RTVSPost2010Prop46
 90
       50
102
RTVSPost2010PropOp46
 70
     1
102
RTVSPost2010Prop47
 90
       50
102
RTVSPost2010PropOp47
 70
     1
102
RTVSPost2010Prop48
 90
       50
102
RTVSPost2010PropOp48
 70
     1
102
RTVSPost2010Prop49
280
     0
102
RTVSPost2010PropOp49
 70
     1
102
RTVSPost2010Prop50
 90
       50
102
RTVSPost2010PropOp50
 70
     1
102
RTVSPost2010Prop51ColorIndex
 90
      256
102
RTVSPost2010Prop51ColorRGB
 90
-16777216
102
RTVSPost2010PropOp51
 70
     0
102
RTVSPost2010Prop52
140
1.0
102
RTVSPost2010PropOp52
 70
     0
102
RTVSPost2010Prop53
 90
        2
102
RTVSPost2010PropOp53
 70
     1
102
RTVSPost2010Prop54
  1
strokes_ogs.tif
102
RTVSPost2010PropOp54
 70
     1
102
RTVSPost2010Prop55
280
     0
102
RTVSPost2010PropOp55
 70
     1
102
RTVSPost2010Prop56
140
1.0
102
RTVSPost2010PropOp56
 70
     1
102
RTVSPost2010Prop57
140
1.0
102
RTVSPost2010PropOp57
 70
     1
102
RTVSPropertyOp0
 70
     1
102
RTVSPropertyOp1
 70
     1
102
RTVSPropertyOp2
 70
     1
102
RTVSPropertyOp3
 70
     1
102
RTVSPropertyOp4
 70
     1
102
RTVSPropertyOp5
 70
     1
102
RTVSPropertyOp6
 70
     1
102
RTVSPropertyOp7
 70
     1
102
RTVSPropertyOp8
 70
     1
102
RTVSPropertyOp9
 70
     1
102
RTVSPropertyOp10
 70
     1
102
RTVSPropertyOp11
 70
     1
102
RTVSPropertyOp12
 70
     1
102
RTVSPropertyOp13
 70
     1
102
RTVSPropertyOp14
 70
     1
102
RTVSPropertyOp15
 70
     1
102
RTVSPropertyOp16
 70
     1
102
RTVSPropertyOp17
 70
     1
102
RTVSPropertyOp18
 70
     1
102
RTVSPropertyOp19
 70
     1
102
RTVSPropertyOp20
 70
     1
102
RTVSPropertyOp21
 70
     1
102
RTVSPropertyOp22
 70
     1
102
RTVSPropertyOp23
 70
     1
102
RTVSPropertyOp24
 70
     1
102
RTVSPropertyOp25
 70
     1
102
RTVSPropertyOp26
 70
     1
102
RTVSPropertyOp27
 70
     1
102
RTVSPropertyOp28
 70
     1
102
RTVSPropertyOp29
 70
     1
102
RTVSPropertyOp30
 70
     1
102
RTVSPropertyOp31
 70
     1
102
RTVSPropertyOp32
 70
     1
102
RTVSPropertyOp33
 70
     1
102
RTVSPropertyOp34
 70
     1
102
RTVSPropertyOp35
 70
     1
102
RTVSPropertyOp36
 70
     1
102
RTVSPropertyOp37
 70
     1
102
RTVSPropertyOp38
 70
     1
102
RTVSPropertyOp39
 70
     1
102
RTVSPropertyOp40
 70
     1
102
RTVSPropertyOp41
 70
     1
102
RTVSPropertyOp42
 70
     1
102
RTVSPropertyOp43
 70
     1
102
RTVSPropertyOp44
 70
     1
102
RTVSPropertyOp45
 70
     1
102
RTVSPropertyOp46
 70
     1
102
RTVSPropertyOp47
 70
     1
102
RTVSPropertyOp48
 70
     1
102
RTVSPropertyOp49
 70
     1
102
RTVSPropertyOp50
 70
     1
102
RTVSPropertyOp51
 70
     0
102
RTVSPropertyOp52
 70
     0
102
RTVSPropertyOp53
 70
     1
102
RTVSPropertyOp54
 70
     1
102
RTVSPropertyOp55
 70
     1
102
RTVSPropertyOp56
 70
     1
102
RTVSPropertyOp57
 70
     1
102
RTVSPropertyOp58
 70
     1
102
RTVSPropertyOp59
 70
     1
102
RTVSPropertyOp60
 70
     1
102
RTVSPropertyOp61
 70
     1
102
RTVSPropertyOp62
 70
     1
  0
XRECORD
  5
2DE
102
{ACAD_REACTORS
330
2DD
102
}
330
2DD
100
AcDbXrecord
280
     1
102
RTVSPost2010Prop28
280
     0
102
RTVSPost2010PropOp28
 70
     1
102
RTVSPost2010Prop29
280
     1
102
RTVSPost2010PropOp29
 70
     1
102
RTVSPost2010Prop30
280
     1
102
RTVSPost2010PropOp30
 70
     1
102
RTVSPost2010Prop31
280
     0
102
RTVSPost2010PropOp31
 70
     1
102
RTVSPost2010Prop32
280
     0
102
RTVSPost2010PropOp32
 70
     1
102
RTVSPost2010Prop33
280
     0
102
RTVSPost2010PropOp33
 70
     1
102
RTVSPost2010Prop34
280
     0
102
RTVSPost2010PropOp34
 70
     1
102
RTVSPost2010Prop35
280
     0
102
RTVSPost2010PropOp35
 70
     1
102
RTVSPost2010Prop36
280
     0
102
RTVSPost2010PropOp36
 70
     1
102
RTVSPost2010Prop37
 90
       50
102
RTVSPost2010PropOp37
 70
     1
102
RTVSPost2010Prop38
140
0.0
102
RTVSPost2010PropOp38
 70
     1
102
RTVSPost2010Prop39
140
1.0
102
RTVSPost2010PropOp39
 70
     1
102
RTVSPost2010Prop40
 90
        0
102
RTVSPost2010PropOp40
 70
     1
102
RTVSPost2010Prop41ColorIndex
 90
       18
102
RTVSPost2010Prop41ColorRGB
 90
        0
102
RTVSPost2010PropOp41
 70
     1
102
RTVSPost2010Prop42
 90
       50
102
RTVSPost2010PropOp42
 70
     1
102
RTVSPost2010Prop43
 90
        3
102
RTVSPost2010PropOp43
 70
     1
102
RTVSPost2010Prop44ColorIndex
 90
        5
102
RTVSPost2010Prop44ColorRGB
 90
      255
102
RTVSPost2010PropOp44
 70
     1
102
RTVSPost2010Prop45
280
     0
102
RTVSPost2010PropOp45
 70
     1
102
RTVSPost2010Prop46
 90
       50
102
RTVSPost2010PropOp46
 70
     1
102
RTVSPost2010Prop47
 90
       50
102
RTVSPost2010PropOp47
 70
     1
102
RTVSPost2010Prop48
 90
       50
102
RTVSPost2010PropOp48
 70
     1
102
RTVSPost2010Prop49
280
     0
102
RTVSPost2010PropOp49
 70
     1
102
RTVSPost2010Prop50
 90
       50
102
RTVSPost2010PropOp50
 70
     1
102
RTVSPost2010Prop51ColorIndex
 90
      256
102
RTVSPost2010Prop51ColorRGB
 90
-16777216
102
RTVSPost2010PropOp51
 70
     0
102
RTVSPost2010Prop52
140
1.0
102
RTVSPost2010PropOp52
 70
     0
102
RTVSPost2010Prop53
 90
        2
102
RTVSPost2010PropOp53
 70
     1
102
RTVSPost2010Prop54
  1
strokes_ogs.tif
102
RTVSPost2010PropOp54
 70
     1
102
RTVSPost2010Prop55
280
     0
102
RTVSPost2010PropOp55
 70
     1
102
RTVSPost2010Prop56
140
1.0
102
RTVSPost2010PropOp56
 70
     1
102
RTVSPost2010Prop57
140
1.0
102
RTVSPost2010PropOp57
 70
     1
102
RTVSPropertyOp0
 70
     1
102
RTVSPropertyOp1
 70
     1
102
RTVSPropertyOp2
 70
     1
102
RTVSPropertyOp3
 70
     1
102
RTVSPropertyOp4
 70
     1
102
RTVSPropertyOp5
 70
     1
102
RTVSPropertyOp6
 70
     1
102
RTVSPropertyOp7
 70
     1
102
RTVSPropertyOp8
 70
     1
102
RTVSPropertyOp9
 70
     1
102
RTVSPropertyOp10
 70
     1
102
RTVSPropertyOp11
 70
     1
102
RTVSPropertyOp12
 70
     1
102
RTVSPropertyOp13
 70
     1
102
RTVSPropertyOp14
 70
     1
102
RTVSPropertyOp15
 70
     1
102
RTVSPropertyOp16
 70
     1
102
RTVSPropertyOp17
 70
     1
102
RTVSPropertyOp18
 70
     1
102
RTVSPropertyOp19
 70
     1
102
RTVSPropertyOp20
 70
     1
102
RTVSPropertyOp21
 70
     1
102
RTVSPropertyOp22
 70
     1
102
RTVSPropertyOp23
 70
     1
102
RTVSPropertyOp24
 70
     1
102
RTVSPropertyOp25
 70
     1
102
RTVSPropertyOp26
 70
     1
102
RTVSPropertyOp27
 70
     1
102
RTVSPropertyOp28
 70
     1
102
RTVSPropertyOp29
 70
     1
102
RTVSPropertyOp30
 70
     1
102
RTVSPropertyOp31
 70
     1
102
RTVSPropertyOp32
 70
     1
102
RTVSPropertyOp33
 70
     1
102
RTVSPropertyOp34
 70
     1
102
RTVSPropertyOp35
 70
     1
102
RTVSPropertyOp36
 70
     1
102
RTVSPropertyOp37
 70
     1
102
RTVSPropertyOp38
 70
     1
102
RTVSPropertyOp39
 70
     1
102
RTVSPropertyOp40
 70
     1
102
RTVSPropertyOp41
 70
     1
102
RTVSPropertyOp42
 70
     1
102
RTVSPropertyOp43
 70
     1
102
RTVSPropertyOp44
 70
     1
102
RTVSPropertyOp45
 70
     1
102
RTVSPropertyOp46
 70
     1
102
RTVSPropertyOp47
 70
     1
102
RTVSPropertyOp48
 70
     1
102
RTVSPropertyOp49
 70
     1
102
RTVSPropertyOp50
 70
     1
102
RTVSPropertyOp51
 70
     0
102
RTVSPropertyOp52
 70
     0
102
RTVSPropertyOp53
 70
     1
102
RTVSPropertyOp54
 70
     1
102
RTVSPropertyOp55
 70
     1
102
RTVSPropertyOp56
 70
     1
102
RTVSPropertyOp57
 70
     1
102
RTVSPropertyOp58
 70
     1
102
RTVSPropertyOp59
 70
     1
102
RTVSPropertyOp60
 70
     1
102
RTVSPropertyOp61
 70
     1
102
RTVSPropertyOp62
 70
     1
  0
XRECORD
  5
2D4
102
{ACAD_REACTORS
330
2D3
102
}
330
2D3
100
AcDbXrecord
280
     1
102
RTVSPost2010Prop28
280
     0
102
RTVSPost2010PropOp28
 70
     1
102
RTVSPost2010Prop29
280
     1
102
RTVSPost2010PropOp29
 70
     1
102
RTVSPost2010Prop30
280
     1
102
RTVSPost2010PropOp30
 70
     1
102
RTVSPost2010Prop31
280
     0
102
RTVSPost2010PropOp31
 70
     1
102
RTVSPost2010Prop32
280
     0
102
RTVSPost2010PropOp32
 70
     1
102
RTVSPost2010Prop33
280
     0
102
RTVSPost2010PropOp33
 70
     1
102
RTVSPost2010Prop34
280
     0
102
RTVSPost2010PropOp34
 70
     1
102
RTVSPost2010Prop35
280
     0
102
RTVSPost2010PropOp35
 70
     1
102
RTVSPost2010Prop36
280
     0
102
RTVSPost2010PropOp36
 70
     1
102
RTVSPost2010Prop37
 90
       50
102
RTVSPost2010PropOp37
 70
     1
102
RTVSPost2010Prop38
140
0.0
102
RTVSPost2010PropOp38
 70
     1
102
RTVSPost2010Prop39
140
1.0
102
RTVSPost2010PropOp39
 70
     1
102
RTVSPost2010Prop40
 90
        0
102
RTVSPost2010PropOp40
 70
     1
102
RTVSPost2010Prop41ColorIndex
 90
       18
102
RTVSPost2010Prop41ColorRGB
 90
        0
102
RTVSPost2010PropOp41
 70
     1
102
RTVSPost2010Prop42
 90
       50
102
RTVSPost2010PropOp42
 70
     1
102
RTVSPost2010Prop43
 90
        3
102
RTVSPost2010PropOp43
 70
     1
102
RTVSPost2010Prop44ColorIndex
 90
        5
102
RTVSPost2010Prop44ColorRGB
 90
      255
102
RTVSPost2010PropOp44
 70
     1
102
RTVSPost2010Prop45
280
     0
102
RTVSPost2010PropOp45
 70
     1
102
RTVSPost2010Prop46
 90
       50
102
RTVSPost2010PropOp46
 70
     1
102
RTVSPost2010Prop47
 90
       50
102
RTVSPost2010PropOp47
 70
     1
102
RTVSPost2010Prop48
 90
       50
102
RTVSPost2010PropOp48
 70
     1
102
RTVSPost2010Prop49
280
     0
102
RTVSPost2010PropOp49
 70
     1
102
RTVSPost2010Prop50
 90
       50
102
RTVSPost2010PropOp50
 70
     1
102
RTVSPost2010Prop51ColorIndex
 90
      256
102
RTVSPost2010Prop51ColorRGB
 90
-16777216
102
RTVSPost2010PropOp51
 70
     0
102
RTVSPost2010Prop52
140
1.0
102
RTVSPost2010PropOp52
 70
     0
102
RTVSPost2010Prop53
 90
        2
102
RTVSPost2010PropOp53
 70
     1
102
RTVSPost2010Prop54
  1
strokes_ogs.tif
102
RTVSPost2010PropOp54
 70
     1
102
RTVSPost2010Prop55
280
     0
102
RTVSPost2010PropOp55
 70
     1
102
RTVSPost2010Prop56
140
1.0
102
RTVSPost2010PropOp56
 70
     1
102
RTVSPost2010Prop57
140
1.0
102
RTVSPost2010PropOp57
 70
     1
102
RTVSPropertyOp0
 70
     1
102
RTVSPropertyOp1
 70
     1
102
RTVSPropertyOp2
 70
     1
102
RTVSPropertyOp3
 70
     1
102
RTVSPropertyOp4
 70
     1
102
RTVSPropertyOp5
 70
     1
102
RTVSPropertyOp6
 70
     1
102
RTVSPropertyOp7
 70
     1
102
RTVSPropertyOp8
 70
     1
102
RTVSPropertyOp9
 70
     1
102
RTVSPropertyOp10
 70
     1
102
RTVSPropertyOp11
 70
     1
102
RTVSPropertyOp12
 70
     1
102
RTVSPropertyOp13
 70
     1
102
RTVSPropertyOp14
 70
     1
102
RTVSPropertyOp15
 70
     1
102
RTVSPropertyOp16
 70
     1
102
RTVSPropertyOp17
 70
     1
102
RTVSPropertyOp18
 70
     1
102
RTVSPropertyOp19
 70
     1
102
RTVSPropertyOp20
 70
     1
102
RTVSPropertyOp21
 70
     1
102
RTVSPropertyOp22
 70
     1
102
RTVSPropertyOp23
 70
     1
102
RTVSPropertyOp24
 70
     1
102
RTVSPropertyOp25
 70
     1
102
RTVSPropertyOp26
 70
     1
102
RTVSPropertyOp27
 70
     1
102
RTVSPropertyOp28
 70
     1
102
RTVSPropertyOp29
 70
     1
102
RTVSPropertyOp30
 70
     1
102
RTVSPropertyOp31
 70
     1
102
RTVSPropertyOp32
 70
     1
102
RTVSPropertyOp33
 70
     1
102
RTVSPropertyOp34
 70
     1
102
RTVSPropertyOp35
 70
     1
102
RTVSPropertyOp36
 70
     1
102
RTVSPropertyOp37
 70
     1
102
RTVSPropertyOp38
 70
     1
102
RTVSPropertyOp39
 70
     1
102
RTVSPropertyOp40
 70
     1
102
RTVSPropertyOp41
 70
     1
102
RTVSPropertyOp42
 70
     1
102
RTVSPropertyOp43
 70
     1
102
RTVSPropertyOp44
 70
     1
102
RTVSPropertyOp45
 70
     1
102
RTVSPropertyOp46
 70
     1
102
RTVSPropertyOp47
 70
     1
102
RTVSPropertyOp48
 70
     1
102
RTVSPropertyOp49
 70
     1
102
RTVSPropertyOp50
 70
     1
102
RTVSPropertyOp51
 70
     0
102
RTVSPropertyOp52
 70
     0
102
RTVSPropertyOp53
 70
     1
102
RTVSPropertyOp54
 70
     1
102
RTVSPropertyOp55
 70
     1
102
RTVSPropertyOp56
 70
     1
102
RTVSPropertyOp57
 70
     1
102
RTVSPropertyOp58
 70
     1
102
RTVSPropertyOp59
 70
     1
102
RTVSPropertyOp60
 70
     1
102
RTVSPropertyOp61
 70
     1
102
RTVSPropertyOp62
 70
     1
  0
XRECORD
  5
2C8
102
{ACAD_REACTORS
330
2C7
102
}
330
2C7
100
AcDbXrecord
280
     1
102
RTVSPost2010Prop28
280
     0
102
RTVSPost2010PropOp28
 70
     1
102
RTVSPost2010Prop29
280
     1
102
RTVSPost2010PropOp29
 70
     1
102
RTVSPost2010Prop30
280
     1
102
RTVSPost2010PropOp30
 70
     1
102
RTVSPost2010Prop31
280
     0
102
RTVSPost2010PropOp31
 70
     1
102
RTVSPost2010Prop32
280
     0
102
RTVSPost2010PropOp32
 70
     1
102
RTVSPost2010Prop33
280
     0
102
RTVSPost2010PropOp33
 70
     1
102
RTVSPost2010Prop34
280
     0
102
RTVSPost2010PropOp34
 70
     1
102
RTVSPost2010Prop35
280
     0
102
RTVSPost2010PropOp35
 70
     1
102
RTVSPost2010Prop36
280
     0
102
RTVSPost2010PropOp36
 70
     1
102
RTVSPost2010Prop37
 90
       50
102
RTVSPost2010PropOp37
 70
     1
102
RTVSPost2010Prop38
140
0.0
102
RTVSPost2010PropOp38
 70
     1
102
RTVSPost2010Prop39
140
1.0
102
RTVSPost2010PropOp39
 70
     1
102
RTVSPost2010Prop40
 90
        0
102
RTVSPost2010PropOp40
 70
     1
102
RTVSPost2010Prop41ColorIndex
 90
       18
102
RTVSPost2010Prop41ColorRGB
 90
        0
102
RTVSPost2010PropOp41
 70
     1
102
RTVSPost2010Prop42
 90
       50
102
RTVSPost2010PropOp42
 70
     1
102
RTVSPost2010Prop43
 90
        3
102
RTVSPost2010PropOp43
 70
     1
102
RTVSPost2010Prop44ColorIndex
 90
        5
102
RTVSPost2010Prop44ColorRGB
 90
      255
102
RTVSPost2010PropOp44
 70
     1
102
RTVSPost2010Prop45
280
     0
102
RTVSPost2010PropOp45
 70
     1
102
RTVSPost2010Prop46
 90
       50
102
RTVSPost2010PropOp46
 70
     1
102
RTVSPost2010Prop47
 90
       50
102
RTVSPost2010PropOp47
 70
     1
102
RTVSPost2010Prop48
 90
       50
102
RTVSPost2010PropOp48
 70
     1
102
RTVSPost2010Prop49
280
     0
102
RTVSPost2010PropOp49
 70
     1
102
RTVSPost2010Prop50
 90
       50
102
RTVSPost2010PropOp50
 70
     1
102
RTVSPost2010Prop51ColorIndex
 90
      256
102
RTVSPost2010Prop51ColorRGB
 90
-16777216
102
RTVSPost2010PropOp51
 70
     0
102
RTVSPost2010Prop52
140
1.0
102
RTVSPost2010PropOp52
 70
     0
102
RTVSPost2010Prop53
 90
        2
102
RTVSPost2010PropOp53
 70
     1
102
RTVSPost2010Prop54
  1
strokes_ogs.tif
102
RTVSPost2010PropOp54
 70
     1
102
RTVSPost2010Prop55
280
     0
102
RTVSPost2010PropOp55
 70
     1
102
RTVSPost2010Prop56
140
1.0
102
RTVSPost2010PropOp56
 70
     1
102
RTVSPost2010Prop57
140
1.0
102
RTVSPost2010PropOp57
 70
     1
102
RTVSPropertyOp0
 70
     1
102
RTVSPropertyOp1
 70
     1
102
RTVSPropertyOp2
 70
     1
102
RTVSPropertyOp3
 70
     1
102
RTVSPropertyOp4
 70
     1
102
RTVSPropertyOp5
 70
     1
102
RTVSPropertyOp6
 70
     1
102
RTVSPropertyOp7
 70
     1
102
RTVSPropertyOp8
 70
     1
102
RTVSPropertyOp9
 70
     1
102
RTVSPropertyOp10
 70
     1
102
RTVSPropertyOp11
 70
     1
102
RTVSPropertyOp12
 70
     1
102
RTVSPropertyOp13
 70
     1
102
RTVSPropertyOp14
 70
     1
102
RTVSPropertyOp15
 70
     1
102
RTVSPropertyOp16
 70
     1
102
RTVSPropertyOp17
 70
     1
102
RTVSPropertyOp18
 70
     1
102
RTVSPropertyOp19
 70
     1
102
RTVSPropertyOp20
 70
     1
102
RTVSPropertyOp21
 70
     1
102
RTVSPropertyOp22
 70
     1
102
RTVSPropertyOp23
 70
     1
102
RTVSPropertyOp24
 70
     1
102
RTVSPropertyOp25
 70
     1
102
RTVSPropertyOp26
 70
     1
102
RTVSPropertyOp27
 70
     1
102
RTVSPropertyOp28
 70
     1
102
RTVSPropertyOp29
 70
     1
102
RTVSPropertyOp30
 70
     1
102
RTVSPropertyOp31
 70
     1
102
RTVSPropertyOp32
 70
     1
102
RTVSPropertyOp33
 70
     1
102
RTVSPropertyOp34
 70
     1
102
RTVSPropertyOp35
 70
     1
102
RTVSPropertyOp36
 70
     1
102
RTVSPropertyOp37
 70
     1
102
RTVSPropertyOp38
 70
     1
102
RTVSPropertyOp39
 70
     1
102
RTVSPropertyOp40
 70
     1
102
RTVSPropertyOp41
 70
     1
102
RTVSPropertyOp42
 70
     1
102
RTVSPropertyOp43
 70
     1
102
RTVSPropertyOp44
 70
     1
102
RTVSPropertyOp45
 70
     1
102
RTVSPropertyOp46
 70
     1
102
RTVSPropertyOp47
 70
     1
102
RTVSPropertyOp48
 70
     1
102
RTVSPropertyOp49
 70
     1
102
RTVSPropertyOp50
 70
     1
102
RTVSPropertyOp51
 70
     0
102
RTVSPropertyOp52
 70
     0
102
RTVSPropertyOp53
 70
     1
102
RTVSPropertyOp54
 70
     1
102
RTVSPropertyOp55
 70
     1
102
RTVSPropertyOp56
 70
     1
102
RTVSPropertyOp57
 70
     1
102
RTVSPropertyOp58
 70
     1
102
RTVSPropertyOp59
 70
     1
102
RTVSPropertyOp60
 70
     1
102
RTVSPropertyOp61
 70
     1
102
RTVSPropertyOp62
 70
     1
  0
XRECORD
  5
2E0
102
{ACAD_REACTORS
330
2DF
102
}
330
2DF
100
AcDbXrecord
280
     1
102
RTVSPost2010Prop28
280
     0
102
RTVSPost2010PropOp28
 70
     1
102
RTVSPost2010Prop29
280
     1
102
RTVSPost2010PropOp29
 70
     1
102
RTVSPost2010Prop30
280
     1
102
RTVSPost2010PropOp30
 70
     1
102
RTVSPost2010Prop31
280
     0
102
RTVSPost2010PropOp31
 70
     1
102
RTVSPost2010Prop32
280
     0
102
RTVSPost2010PropOp32
 70
     1
102
RTVSPost2010Prop33
280
     0
102
RTVSPost2010PropOp33
 70
     1
102
RTVSPost2010Prop34
280
     0
102
RTVSPost2010PropOp34
 70
     1
102
RTVSPost2010Prop35
280
     0
102
RTVSPost2010PropOp35
 70
     1
102
RTVSPost2010Prop36
280
     0
102
RTVSPost2010PropOp36
 70
     1
102
RTVSPost2010Prop37
 90
       50
102
RTVSPost2010PropOp37
 70
     1
102
RTVSPost2010Prop38
140
0.0
102
RTVSPost2010PropOp38
 70
     1
102
RTVSPost2010Prop39
140
1.0
102
RTVSPost2010PropOp39
 70
     1
102
RTVSPost2010Prop40
 90
        0
102
RTVSPost2010PropOp40
 70
     1
102
RTVSPost2010Prop41ColorIndex
 90
       18
102
RTVSPost2010Prop41ColorRGB
 90
        0
102
RTVSPost2010PropOp41
 70
     1
102
RTVSPost2010Prop42
 90
       50
102
RTVSPost2010PropOp42
 70
     1
102
RTVSPost2010Prop43
 90
        3
102
RTVSPost2010PropOp43
 70
     1
102
RTVSPost2010Prop44ColorIndex
 90
        5
102
RTVSPost2010Prop44ColorRGB
 90
      255
102
RTVSPost2010PropOp44
 70
     1
102
RTVSPost2010Prop45
280
     0
102
RTVSPost2010PropOp45
 70
     1
102
RTVSPost2010Prop46
 90
       50
102
RTVSPost2010PropOp46
 70
     1
102
RTVSPost2010Prop47
 90
       50
102
RTVSPost2010PropOp47
 70
     1
102
RTVSPost2010Prop48
 90
       50
102
RTVSPost2010PropOp48
 70
     1
102
RTVSPost2010Prop49
280
     0
102
RTVSPost2010PropOp49
 70
     1
102
RTVSPost2010Prop50
 90
       50
102
RTVSPost2010PropOp50
 70
     1
102
RTVSPost2010Prop51ColorIndex
 90
      256
102
RTVSPost2010Prop51ColorRGB
 90
-16777216
102
RTVSPost2010PropOp51
 70
     0
102
RTVSPost2010Prop52
140
1.0
102
RTVSPost2010PropOp52
 70
     0
102
RTVSPost2010Prop53
 90
        2
102
RTVSPost2010PropOp53
 70
     1
102
RTVSPost2010Prop54
  1
strokes_ogs.tif
102
RTVSPost2010PropOp54
 70
     1
102
RTVSPost2010Prop55
280
     0
102
RTVSPost2010PropOp55
 70
     1
102
RTVSPost2010Prop56
140
1.0
102
RTVSPost2010PropOp56
 70
     1
102
RTVSPost2010Prop57
140
1.0
102
RTVSPost2010PropOp57
 70
     1
102
RTVSPropertyOp0
 70
     1
102
RTVSPropertyOp1
 70
     1
102
RTVSPropertyOp2
 70
     1
102
RTVSPropertyOp3
 70
     1
102
RTVSPropertyOp4
 70
     1
102
RTVSPropertyOp5
 70
     1
102
RTVSPropertyOp6
 70
     1
102
RTVSPropertyOp7
 70
     1
102
RTVSPropertyOp8
 70
     1
102
RTVSPropertyOp9
 70
     1
102
RTVSPropertyOp10
 70
     1
102
RTVSPropertyOp11
 70
     1
102
RTVSPropertyOp12
 70
     1
102
RTVSPropertyOp13
 70
     1
102
RTVSPropertyOp14
 70
     1
102
RTVSPropertyOp15
 70
     1
102
RTVSPropertyOp16
 70
     1
102
RTVSPropertyOp17
 70
     1
102
RTVSPropertyOp18
 70
     1
102
RTVSPropertyOp19
 70
     1
102
RTVSPropertyOp20
 70
     1
102
RTVSPropertyOp21
 70
     1
102
RTVSPropertyOp22
 70
     1
102
RTVSPropertyOp23
 70
     1
102
RTVSPropertyOp24
 70
     1
102
RTVSPropertyOp25
 70
     1
102
RTVSPropertyOp26
 70
     1
102
RTVSPropertyOp27
 70
     1
102
RTVSPropertyOp28
 70
     1
102
RTVSPropertyOp29
 70
     1
102
RTVSPropertyOp30
 70
     1
102
RTVSPropertyOp31
 70
     1
102
RTVSPropertyOp32
 70
     1
102
RTVSPropertyOp33
 70
     1
102
RTVSPropertyOp34
 70
     1
102
RTVSPropertyOp35
 70
     1
102
RTVSPropertyOp36
 70
     1
102
RTVSPropertyOp37
 70
     1
102
RTVSPropertyOp38
 70
     1
102
RTVSPropertyOp39
 70
     1
102
RTVSPropertyOp40
 70
     1
102
RTVSPropertyOp41
 70
     1
102
RTVSPropertyOp42
 70
     1
102
RTVSPropertyOp43
 70
     1
102
RTVSPropertyOp44
 70
     1
102
RTVSPropertyOp45
 70
     1
102
RTVSPropertyOp46
 70
     1
102
RTVSPropertyOp47
 70
     1
102
RTVSPropertyOp48
 70
     1
102
RTVSPropertyOp49
 70
     1
102
RTVSPropertyOp50
 70
     1
102
RTVSPropertyOp51
 70
     0
102
RTVSPropertyOp52
 70
     0
102
RTVSPropertyOp53
 70
     1
102
RTVSPropertyOp54
 70
     1
102
RTVSPropertyOp55
 70
     1
102
RTVSPropertyOp56
 70
     1
102
RTVSPropertyOp57
 70
     1
102
RTVSPropertyOp58
 70
     1
102
RTVSPropertyOp59
 70
     1
102
RTVSPropertyOp60
 70
     1
102
RTVSPropertyOp61
 70
     1
102
RTVSPropertyOp62
 70
     1
  0
ENDSEC
  0
EOF
